» » »

Pat Benatar - Shadows Of The Night Bass

Artists:  A B C D E F G H I J K L M N O P Q R S T U V W X Y Z # 

Shadows Of The Night Bass

(ver. 1) Click to play this song!
Pat Benatar
 Rating:
4/5 (4 votes)


 Shadows Of The Night lessons Tabs too difficult? Try these video lessons and learn fast
 
                -----------------------------------------------------------------------------
                     SHADOWS OF THE NIGHT - Pat Benatar
-----------------------------------------------------------------------------


Tuning: E A D G

INTRO    x4              x3
|----------|-------|-------|------|------|
|:--------:|:------|------:|------|------|
|:--------:|:------|22----:|------|22---2|
|----------|-22----|-------|22----|------|

PRECHORUS
|------------|------------|----|
|1-11-1------|------------|2:--|
|------4-44-4|----------2-|4:--|
|------------|4-46-67642--|----|

CHORUS
|-------------|-------------|------------|------|------|
|-------------|-------------|--11--------|------|------|
|4----22-221--|4----22-221--|1----42-24-4|------|2----4|
|--22-------42|--22-------42|------------|2----2|------|

VERSE
|----------|----------|----------|-----------|
|----------|.-.--.-.--|----------|.-.--.-.---|
|.-.--.-.--|2-2--2-2--|.-.--.-.--|2-2--2-2--2|
|2-2--2-2--|----------|2-2--2-2--|-----------|

PRECHORUS
|------------|------------|----|
|1-11-1------|------------|2:--|
|------4-44-4|----------2-|4:--|
|------------|4-46-67642--|----|

CHORUS
|-------------|-------------|------------|
|-------------|-------------|--11--------|
|4----22-221--|4----22-221--|1----42-24-4|
|--22-------42|--22-------42|------------|

SOLO
|-------|-------|------------|------------|----|
|:------|------:|1-11-1------|------------|2:--|
|:------|2----2:|------4-44-4|----------2-|4:--|
|-2----2|-------|------------|4-46-67642--|----|

CHORUS
|-------------|-------------|------------|
|-------------|-------------|--11--------|
|4----22-221--|4----22-221--|1----42-24-4|
|--22-------42|--22-------42|------------|

PRECHORUS
|------------|------------|----|
|1-11-1------|------------|2:--|
|------4-44-4|----------2-|4:--|
|------------|4-46-67642--|----|

OUTRO                                  Repeat to fade
|--------------|-------------|------------|----------|
|:-------------|-------------|--11--------|---------:|
|:4----22-221--|4----22-221--|1----42-24-4|---4-21--:|
|---22-------42|--22-------42|------------|2------42-|
            
Submit corrections



        Shadows Of The Night lessons Hard to play? Try these video lessons and learn fast Shadows Of The Night lessons
        
↑ Back to top | Tablatures and chords for acoustic guitar and electric guitar, ukulele, drums are parodies/interpretations of the original songs. You may use it for private study, scholarship, research or language learning purposes only