» » »

Passenger - Young As The Morning Old As The Sea Tabs

Artists:  A B C D E F G H I J K L M N O P Q R S T U V W X Y Z # 

Young As The Morning Old As The Sea Tabs

(ver. 1) Click to play this song!
Passenger
 Rating:
5/5 (3 votes)

 Young As The Morning Old As The Sea  lessons Tabs too difficult? Try these video lessons and learn fast
 
                    Am             G                  Am             G
e|---------------------------------|---------------------------------|--
B|--------1--1--1--0---------------|-----1--1--1--1--0---------------|--
G|--------------------------0------|--------------------------0------|--
D|-----2----------------0-------0--|----------------------0-------0--|--
A|--0-----------------2-------2----|--0-----------------2-------2----|--
E|-----------------3------3--------|-----------------3------3--------|--


    Am             G                  Am             G
e|---------------------------------|---------------------------------|--
B|--------1--1--1--0---------------|-----1--1--1--1--0---------------|--
G|--------------------------0------|---------------------------------|--
D|-----2----------------0-------0--|---------------------------------|--
A|--0-----------------2-------2----|--0------------------------------|--
E|-----------------3------3--------|-----------------3---------------|--
            
Submit corrections


        Young As The Morning Old As The Sea  lessons Hard to play? Try these video lessons and learn fast Young As The Morning Old As The Sea  lessons
        
↑ Back to top | Tablatures and chords for acoustic guitar and electric guitar, ukulele, drums are parodies/interpretations of the original songs. You may use it for private study, scholarship, research or language learning purposes only