» » »

Passenger - What Youre Thinking Tabs

Artists:  A B C D E F G H I J K L M N O P Q R S T U V W X Y Z # 

What Youre Thinking Tabs

(ver. 1) Click to play this song!
Passenger
 Rating:
5/5 (20 votes)

 What Youre Thinking lessons Tabs too difficult? Try these video lessons and learn fast
 
                Tuning: EADGBA
Capo  : 6
Video Link: https://vimeo.com/17718715 have fun..
----------------------------------------------------------------------------------------------------------  
Intro 0:55              Guitar Stumming Patern 1

      1 2 3 4 5 6 7 8   1 2 3 4 5 6 7 8   1 2 3 4 5 6 7 8   1 2 3 4 5 6 7 8 
  Up            ?   ?             ?   ?             ?   ?     ?   ?   ?   ?
      | | | | | | | |   | | | | | | | |   | | | | | | | |   | | | | | | | |
Down  ?   ?       ?     ?   ?       ?     ?   ?       ?     ?   ?   ?   ? 
      G   G     G G G   G   G     G G G   C   C     C C C   C C C C C C C C              INTRO
e|----7---7-----7-7-7---5---5-----5-5-5-------------3-3-3---3-----------------|
B|----------------------------------------1---1-----1-1-1---1-1-1-1-3-1-------|
G|----------------------------------------------------------------------------|
D|----------------------------------------2---2-----2-2-2---2-2-2-2-2-2-2-2---|
A|----2---2-----2-2-2---2---2-----2-2-2---3---3-----3-3-3---3-3-3-3-3-3-3-3---|
E|----3---3-----3-3-3---3---3-----3-3-3---------------------------------------| 2x

----------------------------------------------------------------------------------------------------------
Verse 1 1:07            Guitar Stumming Patern 2             

      1 2 3 4 5 6 7 8   1 2 3 4 5 6 7 8   1 2 3 4 5 6 7 8   1 2 3 4 5 6 7 8
  Up            ?   ?             ?   ?             ?   ?             ?   ?
      | | | | | | | |   | | | | | | | |   | | | | | | | |   | | | | | | | |
Down  ?   ?       ?     ?   ?       ?     ?   ?       ?     ?   ?       ? 
      Em                Em                C                 C
e|----0-----------------0-----------------0-----------------0-----------------|
B|----0-----------------0-----------------1-----------------1-----------------|
G|----0-----------------0-----------------0-----------------0-----------------|
D|----2-----------------2-----------------2-----------------2-----------------|
A|----2-----------------2-----------------3-----------------3-----------------|
E|----0-----------------0-----------------x-----------------x-----------------|
                                                                                          VERSE  
      1 2 3 4 5 6 7 8   1 2 3 4 5 6 7 8   1 2 3 4 5 6 7 8   1 2 3 4 5 6 7 8              
  Up            ?   ?             ?   ?             ?   ?     ?   ?   ?   ?
      | | | | | | | |   | | | | | | | |   | | | | | | | |   | | | | | | | |
Down  ?   ?       ?     ?   ?       ?     ?   ?       ?     ?   ?   ?   ? 
      G                 G                 D                 D
e|----3-----------------3-----------------2-----------------0-0-2-2-3-2-0-0---|
B|----0-----------------0-----------------3-----------------3-3-3-3-3-3-3-3---|
G|----0-----------------0-----------------2-----------------2-2-2-2-2-2-2-2---|
D|----0-----------------0-----------------0-----------------0-0-0-0-0-0-0-0---|
A|----2-----------------2-----------------x-----------------x-----------------|
E|----3-----------------3-----------------x-----------------x-----------------| 2x

----------------------------------------------------------------------------------------------------------
Chorus 1:31   
      Am   ? ?  ???     Am   ? ?  ???     G   ? ?  ???      D   ? ?  ???          
e|----0-----------------0-----------------3-----------------2---------0-------|
B|----1-----------------1-----------------0-----------------3-----------------|
G|----2-----------------2-----------------0-----------------2-----------------|
D|----2-----------------2-----------------0-----------------0-----------------|
A|----0-----------------0-----------------2-----------------x-----------------|
E|----x-----------------x-----------------3-----------------x-----------------| 2x
    
      Am   ? ?  ???     C    ? ?  ???     G   ? ?  ???      D   ? ?  ??? 
e|----0-----------------0-----------------3-----------------2-----------------|           CHORUS
B|----1-----------------1-----------------0-----------------3-----------------|
G|----2-----------------0-----------------0-----------------2-----------------|
D|----2-----------------2-----------------0-----------------0-----------------|
A|----0-----------------3-----------------2-----------------x-----------------|
E|----x-----------------x-----------------3-----------------x-----------------| 1x

      Am   ? ?  ???     C    ? ?  ???     G see below

e|----0-----------------0-----------------
B|----1-----------------1-----------------
G|----2-----------------0-----------------  continue with strum pattern 1 (same as intro)
D|----2-----------------2-----------------
A|----0-----------------3-----------------
E|----x-----------------x----------------- 1x

 Guitar Stumming Patern 1

      G   G     G G G   G   G     G G G   C   C     C C C   C C C C C C C C    
      
e|----7---7-----7-7-7---5---5-----5-5-5-------------3-3-3---3-----------------|
B|----------------------------------------1---1-----1-1-1---1-1-1-1-3-1-------|
G|----------------------------------------------------------------------------|
D|----------------------------------------2---2-----2-2-2---2-2-2-2-2-2-2-2---|
A|----2---2-----2-2-2---2---2-----2-2-2---3---3-----3-3-3---3-3-3-3-3-3-3-3---|
E|----3---3-----3-3-3---3---3-----3-3-3---------------------------------------| 2x

-----------------------------------------------------------------------------------------------------------
Verse 2 2:05                  play the same as verse 1                                    VERSE 1
-----------------------------------------------------------------------------------------------------------
Chorus  2:30

      Am   ? ?  ???     Am   ? ?  ???     G   ? ?  ???      D   ? ?  ???          
e|----0-----------------0-----------------3-----------------2---------0-------|
B|----1-----------------1-----------------0-----------------3-----------------|
G|----2-----------------2-----------------0-----------------2-----------------|
D|----2-----------------2-----------------0-----------------0-----------------|
A|----0-----------------0-----------------2-----------------x-----------------|
E|----x-----------------x-----------------3-----------------x-----------------| 2x
    
      Am   ? ?  ???     C    ? ?  ???     G   ? ?  ???      D   ? ?  ??? 
e|----0-----------------0-----------------3-----------------2-----------------|          
B|----1-----------------1-----------------0-----------------3-----------------|           CHORUS
G|----2-----------------0-----------------0-----------------2-----------------| 
D|----2-----------------2-----------------0-----------------0-----------------|
A|----0-----------------3-----------------2-----------------x-----------------|
E|----x-----------------x-----------------3-----------------x-----------------| 1x

      Am   ? ?  ???     C    ? ?  ???     G ? ?  ??????????   
e|----0-----------------0-----------------3-----------------|
B|----1-----------------1-----------------0--------1--------|
G|----2-----------------0-----------------0-------------2---|
D|----2-----------------2-----------------0-----------------|
A|----0-----------------3-----------------2-----------------|
E|----x-----------------x-----------------3-----------------| 1x

------------------------------------------------------------------------------------------------------------
Bridge 2:54


      C   ? ?  ???      C   ? ?  ???      Em   ? ?  ???     Em   ? ?  ???    
e|----0-----------------0-----------------0-----------------0-----------------|
B|----1-----------------1-----------------0-----------------0-----------------|
G|----0-----------------0-----------------0-----------------0-----------------|
D|----2-----------------2-----------------2-----------------2-----------------|
A|----3-----------------3-----------------2-----------------2-----------------|
E|----x-----------------x-----------------0-----------------0-----------------| 1x

      1 2 3 4 5 6 7 8   1 2 3 4 5 6 7 8   1 2 3 4 5 6 7 8   1 2 3 4 5 6 7 8 
  Up            ?   ?             ?   ?             ?   ?     ?   ?   ?   ?
      | | | | | | | |   | | | | | | | |   | | | | | | | |   | | | | | | | |
Down  ?   ?       ?     ?   ?       ?     ?   ?       ?     ?   ?   ?   ? 
      G                 G                 D                 D    
e|----3-----------------3-----------------2-----------------0-0-2-2-3-2-0-0---|
B|----0-----------------0-----------------3-----------------3-3-3-3-3-3-3-3---|
G|----0-----------------0-----------------2-----------------2-2-2-2-2-2-2-2---|
D|----0-----------------0-----------------0-----------------0-0-0-0-0-0-0-0---|
A|----2-----------------2-----------------x-----------------x-----------------|
E|----3-----------------3-----------------x-----------------x-----------------| 1x

      Am  ? ?  ???      Am  ? ?  ???      Em  ? ?  ???      Em   ? ?  ???                  BRIDGE
e|----0-----------------0-----------------0-----------------0-----------------|
B|----1-----------------1-----------------0-----------------0-----------------|
G|----2-----------------2-----------------0-----------------0-----------------|
D|----2-----------------2-----------------2-----------------2-----------------|
A|----0-----------------0-----------------2-----------------2-----------------|
E|----x-----------------x-----------------0-----------------0-----------------| 1x

      1 2 3 4 5 6 7 8   1 2 3 4 5 6 7 8   1 2 3 4 5 6 7 8   1 2 3 4 5 6 7 8 
  Up            ?   ?             ?   ?             ?   ?     ?   ?   ?   ?
      | | | | | | | |   | | | | | | | |   | | | | | | | |   | | | | | | | |
Down  ?   ?       ?     ?   ?       ?     ?   ?       ?     ?   ?   ?   ? 
      G                 G                 D                 D
e|----3-----------------3-----------------2-----------------0-0-2-2-3-2-0-0---|
B|----0-----------------0-----------------3-----------------3-3-3-3-3-3-3-3---|
G|----0-----------------0-----------------2-----------------2-2-2-2-2-2-2-2---|
D|----0-----------------0-----------------0-----------------0-0-0-0-0-0-0-0---|
A|----2-----------------2-----------------x-----------------x-----------------|
E|----3-----------------3-----------------x-----------------x-----------------| 1x

-----------------------------------------------------------------------------------------------------------
Chorus 3:18 outro

      Am   ? strum      Am                G   ?  strum      D   ?   strum       
e|----0-----------------0-----------------3-----------------2-----------------|
B|----1-----------------1-----------------0-----------------3-----------------|
G|----2-----------------2-----------------0-----------------2-----------------|
D|----2-----------------2-----------------0-----------------0-----------------|
A|----0-----------------0-----------------2-----------------x-----------------|
E|----x-----------------x-----------------3-----------------x-----------------| 1x

      Am   ? strum      Am                G   ?  strum      D   ?   strum ???      
e|----0-----------------0-----------------3-----------------2-----------------|
B|----1-----------------1-----------------0-----------------3-----------------|
G|----2-----------------2-----------------0-----------------2-----------------|
D|----2-----------------2-----------------0-----------------0-----------------|
A|----0-----------------0-----------------2-----------------x-----------------|
E|----x-----------------x-----------------3-----------------x-----------------| 1x
    
      Am   ? ?  ???     C    ? ?  ???     G   ? ?  ???      D   ? ?  ???                 CHORUS/OUTRO
e|----0-----------------0-----------------3-----------------2-----------------|
B|----1-----------------1-----------------0-----------------3-----------------|
G|----2-----------------0-----------------0-----------------2-----------------|
D|----2-----------------2-----------------0-----------------0-----------------|
A|----0-----------------3-----------------2-----------------x-----------------|
E|----x-----------------x-----------------3-----------------x-----------------| 1x

      Am   ? ?  ???     C    ? ?  ???     G    ?  strum 
e|----0-----------------0-----------------3-----------------|
B|----1-----------------1-----------------0-----------------|
G|----2-----------------0-----------------0-----------------|
D|----2-----------------2-----------------0-----------------|
A|----0-----------------3-----------------2-----------------|
E|----x-----------------x-----------------3-----------------| 1x            
Submit corrections


        What Youre Thinking lessons Hard to play? Try these video lessons and learn fast What Youre Thinking lessons
        
↑ Back to top | Tablatures and chords for acoustic guitar and electric guitar, ukulele, drums are parodies/interpretations of the original songs. You may use it for private study, scholarship, research or language learning purposes only