Home » P » Passenger »

Passenger - What Will Become Of Us Tabs

Artists:  A B C D E F G H I J K L M N O P Q R S T U V W X Y Z # 

What Will Become Of Us Tabs

(ver. 1) Click to play this song!
Passenger
 Rating:
4.3/5 (16 votes)
                Capo 5.

[Solo]

e|-----------------------------|
B|-----------------------------|
G|-------0----2----------------|
D|---2h3--------2-----0-0-2----|
A|-----------------------------|
E|-----------------------------|

e|-----------------------------|
B|-----------------------------|
G|-----0-0h2-------------------|
D|-2h3-------2-2-0-(0)0h2-(2)--|
A|--------------------------3--|
E|-----------------------------|            
Submit corrections

↑ Back to top | Tablatures and chords for acoustic guitar and electric guitar, ukulele, drums are parodies/interpretations of the original songs. You may use it for private study, scholarship, research or language learning purposes only