» » »

Passenger - Timber And Coal Tabs

Artists:  A B C D E F G H I J K L M N O P Q R S T U V W X Y Z # 

Timber And Coal Tabs

(ver. 1) Click to play this song!
Passenger
 Rating:
4.3/5 (23 votes)

 Timber And Coal  lessons Tabs too difficult? Try these video lessons and learn fast
 
                Capo 1


e|---------------------------------|-0h2-------------3p2-------------|
B|-----0---------3-----3---------3-|-------3-------3-------3-------3-|
G|-----------0---------------0-----|-----------0---------------0-----|
D|-----0-------0-------0-------0---|-----0-------0-------0-------0---|
A|---------------------------------|---------------------------------|
E|-3-------3-------3-------3-------|-3-------3-------3-------3-------|
   1 e + a 2 e + a 3 e + a 4 e + a   1 e + a 2 e + a 3 e + a 4 e + a 
   G

e|-----0h2-------2-----0---------3-|-----3---------3-2-----0---------|
B|-----------3---------------3-----|-----------3---------------3-----|
G|-----2-------2-------2-------2---|-----2-------2-------2-------2---|
D|-0-------0-------0-------0-------|-0-------0-------0-------0-------|
A|---------------------------------|---------------------------------|
E|---------------------------------|---------------------------------|
   1 e + a 2 e + a 3 e + a 4 e + a   1 e + a 2 e + a 3 e + a 4 e + a 
   D

e|---------------------------------|-------0-------------------------|
B|-0h3-----------3-----3-----------|-2---------2---0-----------------|
G|-----------0---------------0-----|-----------------------2---2---2-|
D|-----0-------0-------0-------0---|-----0-------0-------0-------0---|
A|---------------------------------|---------------------------------|
E|-3-------3-------3-------3-------|-3-------3-------3-------3-------|
   1 e + a 2 e + a 3 e + a 4 e + a   1 e + a 2 e + a 3 e + a 4 e + a 
   G

e|-----0h2-------2-----0---------3-|-----3---------3-----2---------0-|
B|-----------3---------------3-----|-----------3-----------------3---|
G|-----2-------2-------2-------2---|-----2-------2-------2-------2---|
D|-0-------0-------0-------0-------|-0-------0-------0-------0-------|
A|---------------------------------|---------------------------------|
E|---------------------------------|---------------------------------|
   1 e + a 2 e + a 3 e + a 4 e + a   1 e + a 2 e + a 3 e + a 4 e + a 
   D            
Submit corrections


        Timber And Coal  lessons Hard to play? Try these video lessons and learn fast Timber And Coal  lessons
        
↑ Back to top | Tablatures and chords for acoustic guitar and electric guitar, ukulele, drums are parodies/interpretations of the original songs. You may use it for private study, scholarship, research or language learning purposes only