» » »

Passenger - Things Youve Never Done Tabs

Artists:  A B C D E F G H I J K L M N O P Q R S T U V W X Y Z # 

Things Youve Never Done Tabs

(ver. 1) Click to play this song!
Passenger
 Rating:
4.3/5 (18 votes)

 Things Youve Never Done lessons Tabs too difficult? Try these video lessons and learn fast
 
                Riff 1                   Riff 2
e|----------------|      e|-----5----------|
B|----------------|      B|----3-3---------|
G|----------------|      G|---4------------|
D|----0--0h2-0----|      D|--5----5--------|
A|-0h2------------|      A|----------------|
E|----------------|      E|----------------|


[Intro x2] *armonics*
e|-----7----------|-----7-7--------|-----7----------|----------------|
B|----7--10-------|----7-----------|----7--8--------|--8-------------|
G|---7------------|---7------------|---7------------|----------------|
D|--7-------------|--7-------------|--7-------------|----------------|
A|----------------|----------------|----------------|----------------|
E|----------------|----------------|----------------|----------------|


Bm
When you were younger
A
Blue eyed boy wonder
G                                     Riff 1
Never used to ponder on what life may hide
Bm
Now you`re older
A
the nights are so much colder
G                                     Riff 2
Never even told her how you feel inside

Bm                           A
You were so proud with your head up in the white clouds
G
She`d call you so loud but you`d never know

Bm                          A
Now that you`re wiser you`d never compromise her
G
Every day you`d realise her
G
But this bird has flown


[Chorus]

e|-----5---5---5------|-----5---5---5------|-----5---5---5------|-----7---7---5---5---|
B|----5--5---5---5----|----5--5---5---5----|----3--3---3---3----|----3--3---3---3---3-|
G|---7----7---7---7---|---6----6---6---6---|---4----4---4---4---|---4----4---4---4---4|
D|--7-----------------|--7-----------------|--5-----------------|--5------------------|
A|--------------------|--------------------|--------------------|---------------------|
E|--------------------|--------------------|--------------------|---------------------|  
         Dadd9                A              Gadd9               Gadd9
And you`ve blown out all your candles one by one

e|--------------------|-----5---5---5------|-----5---5---5------|-----7---7---5-------|
B|----10--10--10------|----5--5---5---5----|----3--3---3---3----|----3--3---3---------|
G|---7--7---7---7-----|---6----6---6---6---|---4----4---4---4---|---4----4---4--------|
D|--9----9---9---9----|--7-----------------|--5-----------------|--5------------------|
A|--------------------|--------------------|--------------------|---------------------|
E|--------------------|--------------------|--------------------|---------------------| 
           Bm                 A              Gadd9               Gadd9             
And you curse yourself for things you never done


Bm - A - G (do with the Chorus tab) x2

Bm
She would wait for you
A
Idolise adore you
G                                        Riff 1
Love and reassure you you couldn`t let it be
Bm
You let it linger
A
Slip on through your fingers
G                                       Riff 2
So that september she moved across the sea

Bm
How your face dropped
A
How your heart stopped
G
Sitting at the bus stop when they told you that she`d gone
Bm
So you run to the harbour
A
Need to tell her that you love her
G
As the boat disappears you never felt so alone

[Chorus]

e|-----5---5---5------|-----5---5---5------|-----5---5---5------|-----7---7---5---5---|
B|----5--5---5---5----|----5--5---5---5----|----3--3---3---3----|----3--3---3---3---3-|
G|---7----7---7---7---|---6----6---6---6---|---4----4---4---4---|---4----4---4---4---4|
D|--7-----------------|--7-----------------|--5-----------------|--5------------------|
A|--------------------|--------------------|--------------------|---------------------|
E|--------------------|--------------------|--------------------|---------------------|  
         Dadd9                A              Gadd9               Gadd9
`Cause you`ve blown out all your candles one by one

e|--------------------|-----5---5---5------|-----5---5---5------|-----7---7---5---5---|
B|----10--10--10------|----5--5---5---5----|----3--3---3---3----|----3--3---3--3---3--|
G|---7--7---7---7-----|---6----6---6---6---|---4----4---4---4---|---4----4---4--4---4-|
D|--9----9---9---9----|--7-----------------|--5-----------------|--5------------------|
A|--------------------|--------------------|--------------------|---------------------|
E|--------------------|--------------------|--------------------|---------------------| 
           Bm                 A              Gadd9               Gadd9       
And you curse yourself for things you never done

e|-----5---5---5------|-----5---5---5------|-----5---5---5------|-----7---7---5---5---|
B|----5--5---5---5----|----5--5---5---5----|----3--3---3---3----|----3--3---3---3---3-|
G|---7----7---7---7---|---6----6---6---6---|---4----4---4---4---|---4----4---4---4---4|
D|--7-----------------|--7-----------------|--5-----------------|--5------------------|
A|--------------------|--------------------|--------------------|---------------------|
E|--------------------|--------------------|--------------------|---------------------|  
         Dadd9                A              Gadd9               Gadd9
Where were you when her hour of need had come?

e|--------------------|-----5---5---5------|-----5---5---5------|-----7---7---5-------|
B|----10--10--10------|----5--5---5---5----|----3--3---3---3----|----3--3---3---------|
G|---7--7---7---7-----|---6----6---6---6---|---4----4---4---4---|---4----4---4--------|
D|--9----9---9---9----|--7-----------------|--5-----------------|--5------------------|
A|--------------------|--------------------|--------------------|---------------------|
E|--------------------|--------------------|--------------------|---------------------| 
           Bm                 A              Gadd9               Gadd9       
Now you curse yourself for things you never done


Bm                A
Now your grandson blonde haired blue eyed handsome
G                                                Riff 1
Calls you up from London and sits and asks you why
Bm                A
So your answer don`t be scared of failure
G                (stop)
For the only failure is never to try

Bm - A - Gadd9 (do with the Chorus tab) x4


e|-----5---5---5------|-----5---5---5------|-----5---5---5------|-----7---7---5---5---|
B|----5--5---5---5----|----5--5---5---5----|----3--3---3---3----|----3--3---3---3---3-|
G|---7----7---7---7---|---6----6---6---6---|---4----4---4---4---|---4----4---4---4---4|
D|--7-----------------|--7-----------------|--5-----------------|--5------------------|
A|--------------------|--------------------|--------------------|---------------------|
E|--------------------|--------------------|--------------------|---------------------|  
         Dadd9                A              Gadd9               Gadd9
Where were you when her hour of need had come?

e|--------------------|-----5---5---5------|-----5---5---5------|-----7---7---5---5---|
B|----10--10--10------|----5--5---5---5----|----3--3---3---3----|----3--3---3--3---3--|
G|---7--7---7---7-----|---6----6---6---6---|---4----4---4---4---|---4----4---4--4---4-|
D|--9----9---9---9----|--7-----------------|--5-----------------|--5------------------|
A|--------------------|--------------------|--------------------|---------------------|
E|--------------------|--------------------|--------------------|---------------------| 
           Bm                 A              Gadd9               Gadd9       
Now you curse yourself for things you never done

Bm - A - Gadd9
            
Submit corrections


        Things Youve Never Done lessons Hard to play? Try these video lessons and learn fast Things Youve Never Done lessons
        
↑ Back to top | Tablatures and chords for acoustic guitar and electric guitar, ukulele, drums are parodies/interpretations of the original songs. You may use it for private study, scholarship, research or language learning purposes only