» » »

Passenger - The Way That I Need You Tabs

Artists:  A B C D E F G H I J K L M N O P Q R S T U V W X Y Z # 

The Way That I Need You Tabs

(ver. 1) Click to play this song!
Passenger
 Rating:
4.4/5 (5 votes)

 The Way That I Need You lessons Tabs too difficult? Try these video lessons and learn fast
 
                [Intro]
    G             C/G               C/G     
E||----------------------------3--|--------------------------------|
B||-----0--------0h1--1-----------|-----1--------1----1--------1---|
G||----------0-------------0------|----------0-------------0-------|
D||-----0------0------0------0----|-----0------0------0------0-----| x2
A||-------------------------------|--------------------------------|
E||--3-----3-------3-----3--------|--3-----3-------3-----3---------|
    C/G           
E|-------------------------------|
B|-----1--------1----1--------1--|
G|----------0-------------0------|
D|-----0------0------0------0----|
A|-------------------------------|
E|--3-----3-------3-----3--------|

[Verse]
    G             C/G               G    
E|-------------------------------|-------------------------------|
B|-----0--------0----1--------1--|-----0--------0----0--------0--|
G|----------0-------------0------|----------0-------------0------|
D|-----0------0------0------0----|-----0------0------0------0----| 
A|-------------------------------|-------------------------------|
E|--3-----3-------3-----3--------|--3-----3-------3-----3--------|
    C             G                 Dsus2/F#    
E|-------------------------------|--------------0----------------|
B|-----1--------1----0--------0--|-----3-------------3--------3--|
G|----------0-------------0------|----------2-------------2------|
D|-----2------2------0------0----|-----0------0------0------0----| 
A|--3-----3----------------------|-------------------------------|
E|----------------3-----3--------|--2-----2-------2-----2--------|
    G             C                 G/B           C
E|-------------------------------|-------------------0-----------|
B|-----0--------0----1--------1--|-----3--------3-------------1--|
G|----------0-------------0------|----------0--------0----0------|
D|-----0------0------2------2----|-----0------0-------------2----| 
A|----------------3-----3--------|--2-----2-------3-----3--------|
E|--3-----3----------------------|-------------------------------|
    D             
E|-------------------------------|
B|-----3--------3----3--------3--|
G|----------2-------------2------|
D|-----4------4------4------4----|
A|--5-----5-------5----5---------|
E|-------------------------------|

[Interlude]
    G             C/G               C/G     
E|----------------------------3--|-------------------------------|
B|-----0--------0h1--1-----------|-----1--------1----1--------1--|
G|----------0-------------0------|----------0-------------0------|
D|-----0------0------0------0----|-----0------0------0------0----| 
A|-------------------------------|-------------------------------|
E|--3-----3-------3-----3--------|--3-----3-------3-----3--------|

[Verse]
    G             C/G               G    
E|-------------------------------|-------------------------------|
B|-----0--------0----1--------1--|-----0--------0----0--------0--|
G|----------0-------------0------|----------0-------------0------|
D|-----0------0------0------0----|-----0------0------0------0----| 
A|-------------------------------|-------------------------------|
E|--3-----3-------3-----3--------|--3-----3-------3-----3--------|
    C             G                 Dsus2/F#    
E|-------------------------------|--------------0----------------|
B|-----1--------1----0--------0--|-----3-------------3--------3--|
G|----------0-------------0------|----------2-------------2------|
D|-----2------2------0------0----|-----0------0------0------0----| 
A|--3-----3----------------------|-------------------------------|
E|----------------3-----3--------|--2-----2-------2-----2--------|
    G             C                 G/B           C
E|-------------------------------|-------------------0-----------|
B|-----0--------0----1--------1--|-----3--------3-------------1--|
G|----------0-------------0------|----------0--------0----0------|
D|-----0------0------2------2----|-----0------0-------------2----| 
A|----------------3-----3--------|--2-----2-------3-----3--------|
E|--3-----3----------------------|-------------------------------|
    D                               G             G      Am G/B
E|-------------------------------|-----------------------------|
B|-----3--------3----3--------3--|-----0--------0h1p0-0--1--3--|
G|----------2-------------2------|----------0------------------|
D|-----4------4------4------4----|-----0------0-------0--------| 
A|--5-----5-------5----5---------|-----------------------0--2--|
E|-------------------------------|--3-----3-------3------------|

[Chorus] 
    C                               G             
E|--0----------------------------|-------------------------------|
B|-----1--------1----1--------1--|-----0--------0----0--------0--|
G|----------0-------------0------|----------0-------------0------|
D|-----2------2------2------2----|-----0------0------0------0----| 
A|--3-----3-------3-----3--------|-------------------------------|
E|-------------------------------|--3-----3-------3-----3--------|
    D             C                 G             G      Am G/B
E|--2--0h2------0----0-----------|-----------------------------|
B|----------3-----------------1--|-----0--------0h1p0-0--1--3--|
G|-----2------2------0----0------|----------0------------------|
D|--0-----0-----------------2----|-----0------0-------0--------| 
A|----------------3-----3--------|-----------------------0--2--|
E|-------------------------------|--3-----3-------3------------|
    C                               G             
E|--0----------------------------|-------------------------------|
B|-----1--------1----1--------1--|-----0--------0----0--------0--|
G|----------0-------------0------|----------0-------------0------|
D|-----2------2------2------2----|-----0------0------0------0----| 
A|--3-----3-------3-----3--------|-------------------------------|
E|-------------------------------|--3-----3-------3-----3--------|
    D             C               
E|--2--0h2------0----0-----------|
B|----------3-----------------1--|
G|-----2------2------0----0------|
D|--0-----0-----------------2----|
A|----------------3-----3--------|
E|-------------------------------|

[Interlude]
    G             C/G               C/G     
E|----------------------------3--|--------------------------------|
B|-----0--------0h1--1-----------|-----1--------1----1--------1---|
G|----------0-------------0------|----------0-------------0-------|
D|-----0------0------0------0----|-----0------0------0------0-----| x2
A|-------------------------------|--------------------------------|
E|--3-----3-------3-----3--------|--3-----3-------3-----3---------|

[Verse]
    G             C/G               G    
E|-------------------------------|-------------------------------|
B|-----0--------0----1--------1--|-----0--------0----0--------0--|
G|----------0-------------0------|----------0-------------0------|
D|-----0------0------0------0----|-----0------0------0------0----| 
A|-------------------------------|-------------------------------|
E|--3-----3-------3-----3--------|--3-----3-------3-----3--------|
    C             G                 Dsus2/F#    
E|-------------------------------|--------------0----------------|
B|-----1--------1----0--------0--|-----3-------------3--------3--|
G|----------0-------------0------|----------2-------------2------|
D|-----2------2------0------0----|-----0------0------0------0----| 
A|--3-----3----------------------|-------------------------------|
E|----------------3-----3--------|--2-----2-------2-----2--------|
    G             C                 G/B           C
E|-------------------------------|-------------------0-----------|
B|-----0--------0----1--------1--|-----3--------3-------------1--|
G|----------0-------------0------|----------0--------0----0------|
D|-----0------0------2------2----|-----0------0-------------2----| 
A|----------------3-----3--------|--2-----2-------3-----3--------|
E|--3-----3----------------------|-------------------------------|
    D                               G
E|-------------------------------|--------------------------------|
B|-----3--------3----3--------3--|-----0--------0h1p0-0--------0--|
G|----------2-------------2------|----------0--------------0------|
D|-----4------4------4------4----|-----0------0-------0------0----|
A|--5-----5-------5----5---------|--------------------------------|
E|-------------------------------|--3-----3-------3------3--------|

[Verse]
    G             C/G               G    
E|-------------------------------|-------------------------------|
B|-----0--------0----1--------1--|-----0--------0----0--------0--|
G|----------0-------------0------|----------0-------------0------|
D|-----0------0------0------0----|-----0------0------0------0----| 
A|-------------------------------|-------------------------------|
E|--3-----3-------3-----3--------|--3-----3-------3-----3--------|
    C             G                 Dsus2/F#    
E|-------------------------------|--------------0----------------|
B|-----1--------1----0--------0--|-----3-------------3--------3--|
G|----------0-------------0------|----------2-------------2------|
D|-----2------2------0------0----|-----0------0------0------0----| 
A|--3-----3----------------------|-------------------------------|
E|----------------3-----3--------|--2-----2-------2-----2--------|
    G             C                 G/B           C
E|-------------------------------|-------------------0-----------|
B|-----0--------0----1--------1--|-----3--------3-------------1--|
G|----------0-------------0------|----------0--------0----0------|
D|-----0------0------2------2----|-----0------0-------------2----| 
A|----------------3-----3--------|--2-----2-------3-----3--------|
E|--3-----3----------------------|-------------------------------|
    D             D                 G             G      Am G/B
E|-------------------------------|-----------------------------|
B|-----3--------3----3--------3--|-----0--------0h1p0-0--1--3--|
G|----------2-------------2------|----------0------------------|
D|-----4------4------4------4----|-----0------0-------0--------| 
A|--5-----5-------5----5---------|-----------------------0--2--|
E|-------------------------------|--3-----3-------3------------|

[Chorus] 
    C                               G             
E|--0----------------------------|-------------------------------|
B|-----1--------1----1--------1--|-----0--------0----0--------0--|
G|----------0-------------0------|----------0-------------0------|
D|-----2------2------2------2----|-----0------0------0------0----| 
A|--3-----3-------3-----3--------|-------------------------------|
E|-------------------------------|--3-----3-------3-----3--------|
    D             C                 G             G      Am G/B
E|--2--0h2------0----0-----------|-----------------------------|
B|----------3-----------------1--|-----0--------0h1p0-0--1--3--|
G|-----2------2------0----0------|----------0------------------|
D|--0-----0-----------------2----|-----0------0-------0--------| 
A|----------------3-----3--------|-----------------------0--2--|
E|-------------------------------|--3-----3-------3------------|
    C                               G             
E|--0----------------------------|-------------------------------|
B|-----1--------1----1--------1--|-----0--------0----0--------0--|
G|----------0-------------0------|----------0-------------0------|
D|-----2------2------2------2----|-----0------0------0------0----| 
A|--3-----3-------3-----3--------|-------------------------------|
E|-------------------------------|--3-----3-------3-----3--------|
    D             C                 G             G      Am G/B
E|--2--0h2------0----0-----------|-----------------------------|
B|----------3-----------------1--|-----0--------0h1p0-0--1--3--|
G|-----2------2------0----0------|----------0------------------|
D|--0-----0-----------------2----|-----0------0-------0--------| 
A|----------------3-----3--------|-----------------------0--2--|
E|-------------------------------|--3-----3-------3------------|
    C                               G             
E|--0----------------------------|-------------------------------|
B|-----1--------1----1--------1--|-----0--------0----0--------0--|
G|----------0-------------0------|----------0-------------0------|
D|-----2------2------2------2----|-----0------0------0------0----| 
A|--3-----3-------3-----3--------|-------------------------------|
E|-------------------------------|--3-----3-------3-----3--------|
    D             C                 Em            
E|--2--0h2------0----0-----------|-------------------------------|
B|----------3-----------------1--|-----0--------0----0--------0--|
G|-----2------2------0----0------|----------0-------------0------|
D|--0-----0-----------------2----|-----2------2------2------2----| 
A|----------------3-----3--------|-------------------------------|
E|-------------------------------|--0-----0-------0-----0--------|
    D             C                 G                G  
E|-------------------------------|-------------------3--||
B|-----3--------3----1--------1--|-----0h1------1----0--||
G|----------2-------------0------|----------0-----------||
D|-----4------4------2------2----|-----0------0---------|| 
A|--5-----5-------3-----3--------|----------------------||
E|-------------------------------|--3-----3-----3----3--||

            
Submit corrections


        The Way That I Need You lessons Hard to play? Try these video lessons and learn fast The Way That I Need You lessons
        
↑ Back to top | Tablatures and chords for acoustic guitar and electric guitar, ukulele, drums are parodies/interpretations of the original songs. You may use it for private study, scholarship, research or language learning purposes only