» » »

Passenger - The Way It Goes Tabs

Artists:  A B C D E F G H I J K L M N O P Q R S T U V W X Y Z # 

The Way It Goes Tabs

(ver. 1) Click to play this song!
Passenger
 Rating:
3/5 (27 votes)
                Tuning: Standard

Capo 1

Intro

e|-0-----------------------0---------------0---------------------------------|
B|-1-----1-------1-----1---1---1-------1---1---1---1---1h3-1---1-------------|
G|-0---------0-----0h2-2-------0---0h2-2-------0-----------------------------|
D|-2---2-------2---------------2---------------2---2-----------2-------------|
A|-3-------3---------------3---------------3-------0-------------------------|
E|-----------------1---------------1-----------------------3-----------------|

e|-------------------------0-------------------------------------------------|
B|-------1-------1-----1---1---1------1---1p0-1-------1----------1-----------|
G|-----------0-----0h2-2-------0--0h2-2---------------------0----------------|
D|-----2-------2---------------2--------------2-------2--------2-------------|
A|-3-------3---------------3----------------------3-------3------------------|
E|-----------------1--------------1-------3----------------------------------|



Verse

e|---------------------------------------------------------------------------|
B|-------1-------1-----1---------1-----1---------1-----1---------1-----------|
G|---0-------0-----0h2-2-----0-----0h2-2-----0---------------0---------------|
D|-----2-------2---------------2---------------2-------0-------0-------------|
A|-3-------3---------------3---------------3---------------------------------|
E|-----------------1---------------1---------------3-------3-----------------|

e|---------------------------------------------------------------------------|
B|-----1---------1-----1---------1-----1---------1-------1---------1---------|
G|-----------0---------------0---------------0-----------------0-------------|
D|---2---------2-------2-------2-------2-------2---------0-------0-----------|
A|-0---------------3-------3-------3-------3---------------------------------|
E|---------1-----------------------------------------3-------3---------------|

e|---------------------------------------------------------------------------|
B|-------1-------1-----1---------1-------1-------1-------1-------1-----------|
G|---0-------0-----0h2-2-----0-----0h2-------0-------0-------0---------------|
D|-----2--------2--------------2-------2-------2-------0-------0-------------|
A|-3-------3---------------3---------------3---------------------------------|
E|-----------------1---------------1---------------3-------3-----------------|

e|----------------------------------------------------------------------------------|
B|-----1---------1-------1-------1-----1---------1-----1---------1-----1---------1--|
G|-----------0-------0-------0---------0-----0---------0-----0---------0-----0------|
D|---2---------2-------2-------2-----2---------0--------h2-----2--------h2-----2----|
A|-0---------------3-------3-------3---------------3-------3-------3-------3--------|
E|---------1-------------------------------3----------------------------------------|


Chorus

e|---------------------------------------------------------------------------|
B|-------1-------1-----1-------1---------1-----1---------1-------------------|
G|---0-------0---------0-------------0---------------0-----------------------|
D|-----2-------0---------2-----2-------2-------2-------2---------------------|
A|-0-----------------------3-------3-------3-------3-------------------------|
E|---------3-------1---------------------------------------------------------|

  2x:
e|---------------------------------------------------------------------------|
B|-------1-------1-----1-------1---------1-----1---------1-------------------|
G|---0-------0---------0-------------0---------0-----0-----------------------|
D|-----2-------0-----2---------2-------2--------h2-----2---------------------|
A|-0-----------------------3-------3-------3-------3-------------------------|
E|---------3-------1---------------------------------------------------------| 

  1x:
e|---------------------------------------------------------------------------|
B|-----1---------1-----1-----------------------------------------------------|
G|-----0-----0---------0-----------------------------------------------------|
D|---2---------0-----2-------------------------------------------------------|
A|-0-------------------------------------------------------------------------|
E|---------3-------1---------------------------------------------------------|


Intro

e|-0-----------------------0---------------0---------------------------------|
B|-------1-------1-----1---1---1-------1---1---1---1---1h3-1---1-------------|
G|-----------0-----0h2-2-------0---0h2-2-------0-----------------------------|
D|-----2-------2---------------2---------------2---2-----------2-------------|
A|-3-------3---------------3---------------3-------0-------------------------|
E|-----------------1---------------1-----------------------3-----------------|

e|-------------------------0-------------------------------------------------|
B|-------1-------1-----1---1---1------1---1p0-1-------1----------1-----------|
G|-----------0-----0h2-2-------0--0h2-2---------------------0----------------|
D|-----2-------2---------------2--------------2-------2--------2-------------|
A|-3-------3---------------3----------------------3-------3------------------|
E|-----------------1--------------1-------3----------------------------------|


Verse

e|---------------------------------------------------------------------------|
B|-------1-------1-----1---------1-----1---------1-----1---------1-----------|
G|-----0-----0-----0h2-2-----0-----0h2-2-----0---------------0---------------|
D|-------------2---------------2---------------2-------0-------0-------------|
A|-3-------3---------------3---------------3---------------------------------|
E|-----------------1---------------1---------------3-------3-----------------|

e|---------------------------------------------------------------------------|
B|-----1---------1-----1---------1-----1---------1-------1---------1---------|
G|-----------0---------------0---------------0-----------------0-------------|
D|---2---------2-------2-------2-------2-------2---------0-------0-----------|
A|-0---------------3-------3-------3-------3---------------------------------|
E|---------1-----------------------------------------3-------3---------------|

e|---------------------------------------------------------------------------|
B|-------1-------1-----1---------1-----1---------1-----1---------1-----------|
G|-----0-----0-----0h2-2-----0-----0h2-2-----0---------------0---------------|
D|-------------2---------------2---------------2-------0-------0-------------|
A|-3-------3---------------3---------------3---------------------------------|
E|-----------------1---------------1---------------3-------3-----------------|

e|----------------------------------------------------------------------------------|
B|-----1---------1-----1---------1-----1---------1-----1---------1-----1---------1--|
G|-----------0---------0-----0---------0-----0---------0-----0---------0-----0------|
D|---2---------2---------------2-------2-------0--------h2-----2--------h2-----2----|
A|-0---------------3-------3-------3---------------3-------3-------3-------3--------|
E|---------1-------------------------------3----------------------------------------|


Chorus

e|---------------------------------------------------------------------------|
B|-------1-------1-----1-------1---------1-----1---------1-------------------|
G|---0-------0---------0-------------0---------0-----0-----------------------|
D|-----2-------0-----2---------2-------2--------h2-----2---------------------|
A|-0-----------------------3-------3-------3-------3-------------------------|
E|---------3-------1---------------------------------------------------------|


e|---------------------------------------------------------------------------|
B|-------1-------1-----1-------1---------1-----1---------1-------------------|
G|---0-------0---------0-------0-----0---------0-----0-----------------------|
D|-----2-------0-----2-------2---------2--------h2-----2---------------------|
A|-0-----------------------3-------3-------3-------3-------------------------|
E|---------3-------1---------------------------------------------------------|


  2x:
e|---------------------------------------------------------------------------|
B|-------1-------1-----1-------1---------1-----1---------1-------------------|
G|---0-------0---------0-------0-----0---------------0-----------------------|
D|-----2-------0-----2-------2---------2-------2-------2---------------------|
A|-0-----------------------3-------3-------3-------3-------------------------|
E|---------3-------1---------------------------------------------------------| 


  1x:
e|---------------------------------------------------------------------------|
B|-----1---------1-----1-----------------------------------------------------|
G|-----0-----0---------0-----------------------------------------------------|
D|---2---------0-----2-------------------------------------------------------|
A|-0-------------------------------------------------------------------------|
E|---------3-------1---------------------------------------------------------|


Outro

e|-0-----------------------0---------------0---------------------------------|
B|-------1-------1-----1---1---1-------1---1---1---1---1h3-1---1-------------|
G|-----------0-----0h2-2-------0---0h2-2-------0-----------------------------|
D|-----2-------2---------------2---------------2---2-----------2-------------|
A|-3-------3---------------3---------------3-------0-------------------------|
E|-----------------1---------------1-----------------------3-----------------|

e|-------------------------0------------------------------3------------------|
B|-------1-------1-----1---1---1------1---1p0-1---------1--------------------|
G|-----------0-----0h2-2-------0--0h2-2-------------0------------------------|
D|-----2-------2---------------2--------------2-------2----------------------|
A|-3-------3---------------3----------------------3-------3------------------|
E|-----------------1--------------1-------3----------------------------------|            
Submit corrections

↑ Back to top | Tablatures and chords for acoustic guitar and electric guitar, ukulele, drums are parodies/interpretations of the original songs. You may use it for private study, scholarship, research or language learning purposes only