» » »

Passenger - Starlings Tabs

Artists:  A B C D E F G H I J K L M N O P Q R S T U V W X Y Z # 

Starlings Tabs

(ver. 1) Click to play this song!
Passenger
 Rating:
4/5 (4 votes)


 Starlings  lessons Tabs too difficult? Try these video lessons and learn fast
 
                Intro:

e|-------0-------0-------0-------0-------0-------0-------0-------0-----------|
B|---0-------0-------0-------0-------0-------0-------0-------0---------------|
G|-9---9---7---5---4---4---4---4---2---2---5---7---4---4---4---4-------------|
D|---------------------------------------------------------------------------|
A|---------------------------------------------------------------------------|
E|---------------------------------------------------------------------------|

e|-------0-------0-------0-------0------0-------0----------------------------|
B|---0-------0-------0-------0-------0------0--------------------------------|
G|-0---0---2/4-2---0------------------0--------------------------------------|
D|---------------------2/4-2---2---0/2----2---0------------------------------|
A|------------------------------------------------2p0------------------------|
E|----------------------------------------------------3----------------------|

Chorus:

     Em                 G                  Am7             C
e|---------------------------------------------------------------------------|
B|-----0---------0------0----------0-------1---------1-----1---------1-------|
G|-----------0-----------------0-----------------0---------------0-----------|
D|-----2-------2--------0--------0---------2-------2-------2-------2---------|
A|-------------------------------------0------0---------3-----3--------------|
E|-0-------0---------3------3------------------------------------------------|
     G                G/B           Am7            Am7             2X
e|---------------------------------------------------------------------------|
B|----0-------0-----0--------0-----1--------1-----1--------1-----------------|
G|--------0--------------0--------------0--------------0---------------------|
D|----0-----0-------0------0-------2------2-------2------2-------------------|
A|---------------2-----2--------0-----0--------0-----0-----------------------|
E|-3----3--------------------------------------------------------------------|
    C     G/B        Am7                C     G/B        Am7           
e|---------------------------------------------------------------------------|
B|----1--------1-----1--------1-------1--------1------1--------1-------------|
G|---------0--------------0----------------0---------------0-----------------|
D|----3------0-------2------2---------3------0--------2------2---------------|
A|-3-----2--------0-----0---------3------2---------0-----0-------------------|
E|---------------------------------------------------------------------------|
    C     G/B      Am7   G            Em              Em
e|---------------------------------------------------------------------------|
B|----1--------1-----1--------0-------0---------0-----0--------0-------------|
G|---------0--------------0----------------0---------------0-----------------|
D|----3------0-------2------0---------2-------2-------2------2---------------|
A|-3-----2--------0----------------------------------------------------------|
E|----------------------3---------0------0---------0-----0-------------------|


Bridge?

     Em               Em                Em             Em
e|---------------------------------------------------------------------------|
B|-----1---------1-----0--------0------1---------1-----0--------0------------|
G|----------0---------------0---------------0---------------0----------------|
D|-----2-------2-------2------2--------2-------2-------2------2--------------|
A|---------------------------------------------------------------------------|
E|-0------0---------0-----0--------0------0---------0-----0------------------|
      B7               B7               Em            Em
e|---------------------------------------------------------------------------|
B|----0--------0-----0--------0------0--------0-----0--------0---------------|
G|---------2--------------2---------------0--------------0-------------------|
D|----1------1-------1------1--------2------2-------2------2-----------------|
A|-2-----2--------2-----2----------------------------------------------------|
E|--------------------------------0-----0--------0-----0---------------------|

And play the chorus again and you're done :)

End of Chorus 2:

    C     G/B      Am7   G                          
e|---------------------------------------------------------------------------|
B|----1--------1-----1--------0----------------------------------------------|
G|---------0--------------0--------------------------------------------------|
D|----3------0-------2------0------------------------------------------------|
A|-3-----2--------0----------------------------------------------------------|
E|----------------------3---------0------------------------------------------|
            
Submit corrections



        Starlings  lessons Hard to play? Try these video lessons and learn fast Starlings  lessons
        
↑ Back to top | Tablatures and chords for acoustic guitar and electric guitar, ukulele, drums are parodies/interpretations of the original songs. You may use it for private study, scholarship, research or language learning purposes only