» » »

Passenger - Someday Tabs

Artists:  A B C D E F G H I J K L M N O P Q R S T U V W X Y Z # 

Someday Tabs

(ver. 1) Click to play this song!
Passenger
 Rating:
4.3/5 (21 vote)

 Someday  lessons Tabs too difficult? Try these video lessons and learn fast
 
                [Intro]
   C               G6        Am7                       F               C         G6
e|-0---------------0-------|-------------------------|-------------------------|-------------------------|
B|-1-----1-------1-------3-|-1---------1-------1-----|-------1-------------1---|-1h3-------3-------3-----|
G|-0---------0-------------|-------0-------0-------0-|-0h2-------2---0---------|-------0-------0-------0-|
D|-2---2---2---2-----------|-----2---2---2---2---2---|-----3---3---3-------2---|-----0---0---0---0---0---|
A|-3-----------------------|-0-----------------------|-----------------3-------|-------------------------|
E|-----------------3-------|-------------------------|-1-----------------------|-3-----------------------|

   Am7             Em        F                         G6              C         F
                                                                                                    Well..
e|-0h3---3---0-------------|-------------------------|--------------0----------|-------------------------|
B|---------------3-3p1-----|-------1-------1-------1-|-1h3------1----------1---|-------1-------1-------1-|
G|-----------------------0-|-0h2-------2-------2-----|------0------------------|-0h2-------2-------2-----|
D|-----2---2---2-------2---|-----3---3---3---3---3---|----0---0---0--------2---|-----3---3---3---3---3---|
A|-0-----------------------|-------------------------|-----------------3-------|-------------------------|
E|-----------------0-------|-1-----------------------|-3-----------------------|-1-----------------------|

[Verse 1]
   C               G6        Am7                       F               C         G6
..somewhere out across  the sea                        in a land thats lost and free
e|-------------------------|-------------------------|-------------------------|-------------------------|
B|-------1-------1-------1-|-------1-------1-------1-|-------1-------1-------1-|-------1-------1-------1-|
G|---0-------0-------0-----|---0-------0-------0-----|---0-------0-------0-----|---0-------0-------0-----|
D|-----2---2---2-------0---|-----2---2---2---2---2---|-----3---3---3-------2---|-----0---0---0---0---0---|
A|-3-----------------------|-0-----------------------|-----------------3-------|-------------------------|
E|-----------------3-------|-------------------------|-1-----------------------|-3-----------------------|

   Am7             Em        F                         G6              C         F
  with my darling close to   me                      that is where Im supposed to be
e|-------------------------|-------------------------|-------------------------|-------------------------|
B|-------1-------1-------0-|-------1-------1-------1-|------1-------1--------1-|-------1-------1-------1-|
G|---0-------0-------0-----|---0-------0-------0-----|--0-------0--------0-----|---0-------0-------0-----|
D|-----2---2---2-------2---|-----3---3---3---3---3---|----0---0---0--------2---|-----3---3---3---3---3---|
A|-0-----------------------|-------------------------|-----------------3-------|-------------------------|
E|-----------------0-------|-1-----------------------|-3-----------------------|-1-----------------------|

[Solo 1]
   C               G6        Am7                       F               C         G6
                                                                                                    Yes..
e|-0---------------0-------|-------------------------|-------------------------|-------------------------|
B|-------1-------1-------3-|-1---------1-------1-----|-------1-----------------|-------1-------1-------1-|
G|-----------0-------------|-------0-------0-------0-|-0h2-------2---0-----0---|---0-------0-------0-----|
D|-----2---2---2-----------|-----2---2---2---2---2---|-----3---3---3-------2---|-0---0---0---0---0---0---|
A|-3-----------------------|-0-----------------------|-----------------3-------|-------------------------|
E|-----------------3-------|-------------------------|-1-----------------------|-------------------------|

[Verse 2]
   C               G6        Am7                       F               C         G6
..somewhere on the ocean   breeze                      in around the swinging  trees
e|-------------------------|-------------------------|-------------------------|-------------------------|
B|-------1-------1-------1-|-------1-------1-------1-|-------1-------1-------1-|-------1-------1-------1-|
G|---0-------0-------0-----|---0-------0-------0-----|---0-------0-------0-----|---0-------0-------0-----|
D|-----2---2---2-------0---|-----2---2---2---2---2---|-----3---3---3-------2---|-----0---0---0---0---0---|
A|-3-----------------------|-0-----------------------|-----------------3-------|-------------------------|
E|-----------------3-------|-------------------------|-1-----------------------|-3-----------------------|

   Am7             Em        F                         G6              C         F
  we're the only   one from here                     that is where I  long  to  be
e|-------------------------|-------------------------|-------------------------|-------------------------|
B|-------1-------1-------0-|-------1-------1-------1-|------1-------1--------1-|-------1-------1-------1-|
G|---0-------0-------0-----|---0-------0-------0-----|--0-------0--------0-----|---0-------0-------0-----|
D|-----2---2---2-------2---|-----3---3---3---3---3---|----0---0---0--------2---|-----3---3---3---3---3---|
A|-0-----------------------|-------------------------|-----------------3-------|-------------------------|
E|-----------------0-------|-1-----------------------|-3-----------------------|-1-----------------------|

[Solo 2]
   C               G6        Am7                       F               C         G6
someday
e|-0---------------0-------|-------------------------|-------------------------|-------------------------|
B|-------1-------1-------3-|-1---------1-------1-----|-------1-------------1---|-1h3-------3-------3-----|
G|-----------0-------------|-------0-------0-------0-|-0h2-------2---0---------|-------0-------0-------0-|
D|-----2---2---2-----------|-----2---2---2---2---2---|-----3---3---3-------2---|-----0---0---0---0---0---|
A|-3-----------------------|-0-----------------------|-----------------3-------|-------------------------|
E|-----------------3-------|-------------------------|-1-----------------------|-3-----------------------|

   Am7             Em        F                         G6              C         F
                                                                                                    Yes..
e|-0h3---3---0-------------|-------------------------|--------------0----------|-------------------------|
B|---------------3-3p0-----|-------1-------1-------1-|-1h3------1--------------|-------1-------1-------1-|
G|-----------------------0-|-0h2-------2-------2-----|------0--------------0---|-0h2-------2-------2-----|
D|-----2---2---2-------2---|-----3---3---3---3---3---|----0---0---0--------2---|-----3---3---3---3---3---|
A|-0-----------------------|-------------------------|-----------------3-------|-------------------------|
E|-----------------0-------|-1-----------------------|-3-----------------------|-1-----------------------|

[Verse 3]
   C               G6        Am7                       F               C         G6
..somewhere out  upon   the beach                     out of range and out  of  reach
e|-------------------------|-------------------------|-------------------------|-------------------------|
B|-------1-------1-------1-|-------1-------1-------1-|-------1-------1-------1-|-------1-------1-------1-|
G|---0-------0-------0-----|---0-------0-------0-----|---0-------0-------0-----|---0-------0-------0-----|
D|-----2---2---2-------0---|-----2---2---2---2---2---|-----3---3---3-------2---|-----0---0---0---0---0---|
A|-3-----------------------|-0-----------------------|-----------------3-------|-------------------------|
E|-----------------3-------|-------------------------|-1-----------------------|-3-----------------------|

   Am7             Em        F                         G6              C         F
  with the truest love  of  mine                      underneath the bluest    sky                  Yeah..
e|-------------------------|-------------------------|-------------------------|-------------------------|
B|-------1-------1-------0-|-------1-------1-------1-|------1-------1--------1-|-------1-------1-------1-|
G|---0-------0-------0-----|---0-------0-------0-----|--0-------0--------0-----|---0-------0-------0-----|
D|-----2---2---2-------2---|-----3---3---3---3---3---|----0---0---0--------2---|-----3---3---3---3---3---|
A|-0-----------------------|-------------------------|-----------------3-------|-------------------------|
E|-----------------0-------|-1-----------------------|-3-----------------------|-1-----------------------|

[Verse 4]
   C               G6        Am7                       F               C         G6
..far  away  from  any      time                we'll watch the lazy  sun  go   down
e|-------------------------|-------------------------|-------------------------|-------------------------|
B|-------1-------1-------1-|-------1-------1-------1-|-------1-------1-------1-|-------1-------1-------1-|
G|---0-------0-------0-----|---0-------0-------0-----|---0-------0-------0-----|---0-------0-------0-----|
D|-----2-------2-------0---|-----2---2---2---2---2---|-----3---3---3-------2---|-----0---0---0---0---0---|
A|-3-------3---------------|-0-----------------------|-----------------3-------|-------------------------|
E|-----------------3-------|-------------------------|-1-----------------------|-3-----------------------|

   Am7             Em        F                         G6              C         F
 with my sweetheart I  lay  down                     that is where I  will be   found
e|-------------------------|-------------------------|-------------------------|-------------------------|
B|-------1-------1-------0-|-------1-------1-------1-|------1-------1--------1-|-------1-------1-------1-|
G|---0-------0-------0-----|---0-------0-------0-----|--0-------0--------0-----|---0-------0-------0-----|
D|-----2---2---2-------2---|-----3---3---3---3---3---|----0---0---0--------2---|-----3---3---3---3---3---|
A|-0-----------------------|-------------------------|-----------------3-------|-------------------------|
E|-----------------0-------|-1-----------------------|-3-----------------------|-1-----------------------|

   F
e|-0-----------------------|
B|-------1-------1-------1-|
G|-----------0-------0-----|
D|-----3---3---3---3---3---|
A|-------------------------|
E|-1-----------------------|

[Solo 3]
   C               G6        Am7                       F               C         G6
Someday
e|-0---------------0-------|-------------------------|-------------------------|-------------------------|
B|-------1-------1-------3-|-1---------1-------1-----|-------1-------------1---|-1h3-------3-------3-----|
G|-----------0-------------|-------0-------0-------0-|-0h2-------2---0---------|-------0-------0-------0-|
D|-----2---2---2-----------|-----2---2---2---2---2---|-----3---3---3-------2---|-----0---0---0---0---0---|
A|-3-----------------------|-0-----------------------|-----------------3-------|-------------------------|
E|-----------------3-------|-------------------------|-1-----------------------|-3-----------------------|

   Am7             Em        F                         G6              C         F
Someday
e|-------------------------|-------------------------|--------------0----------|-------------------------|
B|-------1-------1-------0-|-------1-------1-------1-|-1h3------1----------1---|-------1-------1-------1-|
G|---0-------0-------0-----|---0-------0-------0-----|------0------------------|-0h2-------2-------2-----|
D|-----2---2---2-------2---|-----3---3---3---3---3---|----0---0---0--------2---|-----3---3---3---3---3---|
A|-0-----------------------|-------------------------|-----------------3-------|-------------------------|
E|-----------------0-------|-1-----------------------|-3-----------------------|-1-----------------------|

[Pre-outro]
   Em                        Am                        Dm                        G
e|-----------------0-------|-----------------0-------|-1---------------1-------|-------------------------|
B|-0---------0-------------|-1---------1-------------|-----------3-------------|-0---------0-----1p0-----|
G|-------0-----------------|-------2-----------------|-------2-----------------|-------0-----------------|
D|-----2---2---2-----------|-----2---2---2-----------|-0---0---0---0---0-------|-----0---0---0-----------|
A|-------------------------|-0---------------0-------|-------------------------|-------------------------|
E|-0---------------0-------|-------------------------|-------------------------|-3---------------3-------|

   Em                        Am                        F                         G
e|-----------------0-------|-----------------0-------|-----------------0-------|-------------------------|
B|-0---------0-------------|-1---------1-------------|-1---------1-------------|-0-------1-------3-------|
G|-------0-----------------|-------2-----------------|-------0-----------------|-------------------------|
D|-----2---2---2-----------|-----2---2---2-----------|-----3---3---3-----------|-----0-------0-----------|
A|-------------------------|-0---------------0-------|-------------------------|-------------------------|
E|-0---------------0-------|-------------------------|-1---------------1-------|-3-------3---------------|

[Outro]
   C               G6        Am7                       F               C         G6
e|-0---------------0-------|-------------------------|-------------------------|-------------------------|
B|-------1-------1-------3-|-1---------1-------1-----|-------1-------------1---|-1h3-------3-------3-----|
G|-----------0-------------|-------0-------0-------0-|-0h2-------2---0---------|-------0-------0-------0-|
D|-----2---2---2-----------|-----2---2---2---2---2---|-----3---3---3-------2---|-----0---0---0---0---0---|
A|-3---------------------2-|-0-----------------------|-----------------3-------|-------------------------|
E|-----------------3-------|-------------------------|-1-----------------------|-3-----------------------|

   Am7             Em        F                         G6              C         F
e|-0h3---3---0-------------|-------------------------|--------------0----------|-------------------------|
B|---------------3-3p1-----|-------1-------1-------1-|-1h3------1----------1---|-1-----------------------|
G|-----------------------0-|-0h2-------2-------2-----|------0------------------|-2-----------------------|
D|-----2---2---2-------2---|-----3---3---3---3---3---|----0---0---0--------2---|-3-----------------------|
A|-0-----------------------|-------------------------|-----------------3-------|-0-----------------------|
E|-----------------0-------|-1-----------------------|-3-----------------------|-1-----------------------|            
Submit corrections


        Someday  lessons Hard to play? Try these video lessons and learn fast Someday  lessons
        
↑ Back to top | Tablatures and chords for acoustic guitar and electric guitar, ukulele, drums are parodies/interpretations of the original songs. You may use it for private study, scholarship, research or language learning purposes only