» » »

Passenger - Settled Tabs

Artists:  A B C D E F G H I J K L M N O P Q R S T U V W X Y Z # 

Settled Tabs

(ver. 1) Click to play this song!
Passenger
 Rating:
4/5 (4 votes)
    Settled  lessons Tabs too difficult? Try these video lessons and learn fast
                Intro
-----

   G            C             D            C        G            C    Dadd4add9
e|---------------------------|-------------0-------|-------------------------|
B|----0-------0----1-------1-|---3-------3---1---1-|---0-------0----1-------3|
G|----0---0--------0---0-----|---2---2---------0---|---0---0--------0---0----|
D|----------0------------2---|0----0---0-----------|---------0------------4--|
A|--------------3----3-------|-------------3-------|-------------3----5------|
E|-3----3--------------------|---------------------|3----3-------------------|

   G
e|-------------------------------|
B|----0h1-------1p0--0-------0---|
G|----0-----0--------0---0-------| x2
D|------------0------------0-----|
A|-------------------------------|
E|-3------3-------3----3---------|


Verse
-----

   G            C             D            C             G
e|---------------------------|-------------------------|---------------------|
B|----0-------0----1-------1-|---3-------3----1-------1|----0-------0--------|
G|----0---0--------0---0-----|---2---2--------0---0----|----0---0------------|
D|----------0------------2---|0----0---0------------2--|----------0----------|
A|--------------3----3-------|-------------3----3------|---------------------|
E|-3----3--------------------|-------------------------|-3----3--------------|

   C             G
e|-------------|--------------------------|
B|----1-------1|----0-------0----0-------0|
G|----0---0----|----0---0--------0---0----|
D|----------2--|----------0------------0--|
A|-3----3------|--------------------------|
E|-------------|-3----3-------3----3------|

   G            C             D            C             G
e|---------------------------|-------------------------|---------------------|
B|----0-------0----1-------1-|---3-------3----1-------1|----0-------0--------|
G|----0---0--------0---0-----|---2---2--------0---0----|----0---0------------|
D|----------0------------2---|0----0---0------------2--|----------0----------|
A|--------------3----3-------|-------------3----3------|---------------------|
E|-3----3--------------------|-------------------------|-3----3--------------|

   C      Dadd4add9 G
e|-------------|--------------------------|
B|---1--------3|----0-------0----0-------0|
G|---0----0----|----0---0--------0---0----|
D|----------4--|----------0------------0--|
A|-3----5------|--------------------------|
E|-------------|-3----3-------3----3------|


Pre-chorus
----------

   C                          G                          Em
e|--------------------------|--------------------------|---------------------|
B|----1-------1----1-------1|----0-------0----0-------0|----0-------0--------|
G|----0---0--------0---0----|----0---0--------0---0----|----0---0------------|
D|----------2------------2--|----------0------------0--|----------2----------|
A|-3----3-------3----3------|--------------------------|---------------------|
E|--------------------------|-3----3-------3----3------|-0----0--------------|

                 D
e|-------------|----0h2-------2----2-------2-|
B|----0-------0|----3-----3--------3---3-----|
G|----0---0----|------------2------------2---|
D|----------2--|-0------0-------0----0-------|
A|-------------|-----------------------------|
E|-0----0------|-----------------------------|


First Chorus
------------

   C                          Dadd4add9                  G
e|--------------------------|--------------------------|---------------------|
B|----1-------1----1-------1|----3-------3----3-------3|----0-------0--------|
G|----0---0--------0---0----|----0---0--------0---0----|----0---0------------|
D|----------2------------2--|----------4------------4--|----------0----------|
A|-3----3-------3----3------|-5----5-------5----5------|---------------------|
E|--------------------------|--------------------------|-3----3--------------|

   G/F#          Em                    Am
e|-------------|--------------0------|-------------------------------|
B|----0-------0|----0-------0---0---0|-0h1-------1-----1--------1----|
G|----0---0----|----0---0---------0--|-------2-------2------2-------2|
D|----------0--|----------2----------|-----2-------2------2-------2--|
A|-------------|---------------------|-0-------0-------0------0------|
E|-2----2------|-0----0-------0------|-------------------------------|

   D                            G                          G7
e|----0h2-------2----2-------2|----3---------3-----------|-1------------1-----------|
B|----3-----3--------3---3----|--------0----------------0|------------0------------0|
G|------------2------------2--|------------0--------0----|--------0------------0----|
D|-0------0-------0----0------|----------0------0-----0--|----0-----0------0-----0--|
A|----------------------------|--------------------------|--------------------------|
E|----------------------------|-3----3-------3----3------|-3----3-------3----3------|

   C                          Dadd4add9                  G
e|--------------------------|--------------------------|---------------------|
B|----1-------1----1-------1|----3-------3----3-------3|----0-------0--------|
G|----0---0--------0---0----|----0---0--------0---0----|----0---0------------|
D|----------2------------2--|----------4------------4--|----------0----------|
A|-3----3-------3----3------|-5----5-------5----5------|---------------------|
E|--------------------------|--------------------------|-3----3--------------|

   G/F#          Em                    Am                              D
e|-------------|--------------0------|-------------------------------|----0h2-------2----2-------2|
B|----0-------0|----0-------0---0---0|-0h1-------1-----1--------1----|----3-----3--------3---3----|
G|----0---0----|----0---0---------0--|-------2-------2------2-------2|------------2------------2--|
D|----------0--|----------2----------|-----2-------2------2-------2--|-0------0-------0----0------|
A|-------------|---------------------|-0-------0-------0------0------|----------------------------|
E|-2----2------|-0----0-------0------|-------------------------------|----------------------------|

   G            C             D            C        G            C    Dadd4add9
e|---------------------------|-------------0-------|-------------------------|
B|----0-------0----1-------1-|---3-------3---1---1-|---0-------0----1-------3|
G|----0---0--------0---0-----|---2---2---------0---|---0---0--------0---0----|
D|----------0------------2---|0----0---0-----------|---------0------------4--|
A|--------------3----3-------|-------------3-------|-------------3----5------|
E|-3----3--------------------|---------------------|3----3-------------------|

   G
e|-------------------------------|
B|----0h1-------1p0--0-------0---|
G|----0-----0--------0---0-------|
D|------------0------------0-----|
A|-------------------------------|
E|-3------3-------3----3---------|


Second Verse
------------

   G            C             D            C             G
e|---------------------------|-------------------------|---------------------|
B|----0-------0----1-------1-|---3-------3----1-------1|----0-------0--------|
G|----0---0--------0---0-----|---2---2--------0---0----|----0---0------------|
D|----------0------------2---|0----0---0------------2--|----------0----------|
A|--------------3----3-------|-------------3----3------|---------------------|
E|-3----3--------------------|-------------------------|-3----3--------------|

   C             G
e|-------------|--------------------------|
B|----1-------1|----0-------0----0-------0|
G|----0---0----|----0---0--------0---0----|
D|----------2--|----------0------------0--|
A|-3----3------|--------------------------|
E|-------------|-3----3-------3----3------|

   G            C             D            C             G
e|---------------------------|-------------------------|---------------------|
B|----0-------0----1-------1-|---3-------3----1-------1|----0-------0--------|
G|----0---0--------0---0-----|---2---2--------0---0----|----0---0------------|
D|----------0------------2---|0----0---0------------2--|----------0----------|
A|--------------3----3-------|-------------3----3------|---------------------|
E|-3----3--------------------|-------------------------|-3----3--------------|

   C   Dadd4add9 G
e|-------------|--------------------------|
B|---1--------3|----0-------0----0-------0|
G|---0----0----|----0---0--------0---0----|
D|----------4--|----------0------------0--|
A|-3----5------|--------------------------|
E|-------------|-3----3-------3----3------|


Pre-chorus
----------

   C                          G                          Em
e|--------------------------|--------------------------|---------------------|
B|----1-------1----1-------1|----0-------0----0-------0|----0-------0--------|
G|----0---0--------0---0----|----0---0--------0---0----|----0---0------------|
D|----------2------------2--|----------0------------0--|----------2----------|
A|-3----3-------3----3------|--------------------------|---------------------|
E|--------------------------|-3----3-------3----3------|-0----0--------------|

                 D
e|-------------|----0h2-------2----2-------2-|
B|----0-------0|----3-----3--------3---3-----|
G|----0---0----|------------2------------2---|
D|----------2--|-0------0-------0----0-------|
A|-------------|-----------------------------|
E|-0----0------|-----------------------------|


Second Chorus
-------------

   C                          Dadd4add9                  G
e|--------------------------|--------------------------|---------------------|
B|----1-------1----1-------1|----3-------3----3-------3|----0-------0--------|
G|----0---0--------0---0----|----0---0--------0---0----|----0---0------------|
D|----------2------------2--|----------4------------4--|----------0----------|
A|-3----3-------3----3------|-5----5-------5----5------|---------------------|
E|--------------------------|--------------------------|-3----3--------------|

   G/F#          Em                    Am
e|-------------|--------------0------|-------------------------------|
B|----0-------0|----0-------0---0---0|-0h1-------1-----1--------1----|
G|----0---0----|----0---0---------0--|-------2-------2------2-------2|
D|----------0--|----------2----------|-----2-------2------2-------2--|
A|-------------|---------------------|-0-------0-------0------0------|
E|-2----2------|-0----0-------0------|-------------------------------|

   D                            G                          G7
e|----0h2-------2----2-------2|----3---------3-----------|-1------------1-----------|
B|----3-----3--------3---3----|--------0----------------0|------------0------------0|
G|------------2------------2--|------------0--------0----|--------0------------0----|
D|-0------0-------0----0------|----------0------0-----0--|----0-----0------0-----0--|
A|----------------------------|--------------------------|--------------------------|
E|----------------------------|-3----3-------3----3------|-3----3-------3----3------|

   C                          Dadd4add9                  G
e|--------------------------|--------------------------|---------------------|
B|----1-------1----1-------1|----3-------3----3-------3|----0-------0--------|
G|----0---0--------0---0----|----0---0--------0---0----|----0---0------------|
D|----------2------------2--|----------4------------4--|----------0----------|
A|-3----3-------3----3------|-5----5-------5----5------|---------------------|
E|--------------------------|--------------------------|-3----3--------------|

   G/F#          Em                    Am
e|-------------|--------------0------|-------------------------------|
B|----0-------0|----0-------0---0---0|-0h1-------1-----1--------1----|
G|----0---0----|----0---0---------0--|-------2-------2------2-------2|
D|----------0--|----------2----------|-----2-------2------2-------2--|
A|-------------|---------------------|-0-------0-------0------0------|
E|-2----2------|-0----0-------0------|-------------------------------|

   D                            G                          G7
e|----0h2-------2----2-------2|----3---------3-----------|-1------------1h3--1--|
B|----3-----3--------3---3----|--------0----------------0|------------0---------|
G|------------2------------2--|------------0--------0----|--------0------------0|
D|-0------0-------0----0------|----------0------0-----0--|----0-----0------0----|
A|----------------------------|--------------------------|----------------------|
E|----------------------------|-3----3-------3----3------|-3----3-------3----3--|


Bridge
------

   C                           Em                      Am
e|-0-------0---0--------0----|-0--------0-----0------|-----------------|
B|-1-------1---1--------1----|-0--------0-------0---0|-0h1-------1-----|
G|------0-----------0--------|------0-------0-----0--|-------2-------2-|
D|----2------2----2-------2--|----2-------2----------|-----2-------2---|
A|-3-----3-----3------3------|-----------------------|-0-------0-------|
E|---------------------------|-0------0-------0------|-----------------|

                   D
e|---------------|----------------------------|
B|-1--------1----|-3----------3---------------|
G|------2-------2|--------2-------------------|
D|----2-------2--|----0-----0------0----------|
A|---------------|----------------------------|
E|-3------3------|-2----2-------2----0--2-----|

   G           G/F#           Em                    Am
e|--------------------------|--------------0------|---------------------|
B|-0----------0------------0|----0-------0---0---0|-0h1-------1---------|
G|-0------0------------0----|----0---0---------0--|-------2-------2-----|
D|----0-----0------0-----0--|----------2----------|-----2-------2-------|
A|--------------------------|---------------------|-0-------0-----------|
E|-3----3-------2----2------|-0----0-------0------|---------------------|

                   D
e|---------------|----0h2-------2----2-------2|
B|-1--------1----|----3-----3--------3---3----|
G|------2-------2|------------2------------2--|
D|----2-------2--|-0------0-------0----0------|
A|-0------0------|----------------------------|
E|---------------|----------------------------|


Final Chorus
------------

   C                          Dadd4add9                  G
e|--------------------------|--------------------------|---------------------|
B|----1-------1----1-------1|----3-------3----3-------3|----0-------0--------|
G|----0---0--------0---0----|----0---0--------0---0----|----0---0------------|
D|----------2------------2--|----------4------------4--|----------0----------|
A|-3----3-------3----3------|-5----5-------5----5------|---------------------|
E|--------------------------|--------------------------|-3----3--------------|

   G/F#          Em                    Am
e|-------------|--------------0------|-------------------------------|
B|----0-------0|----0-------0---0---0|-0h1-------1-----1--------1----|
G|----0---0----|----0---0---------0--|-------2-------2------2-------2|
D|----------0--|----------2----------|-----2-------2------2-------2--|
A|-------------|---------------------|-0-------0-------0------0------|
E|-2----2------|-0----0-------0------|-------------------------------|

   D                            G                          G7
e|----0h2-------2----2-------2|--------------------------|-1------------1h3--1--|
B|----3-----3--------3---3----|----0-------0----0-------0|------------0---------|
G|------------2------------2--|----0---0--------0---0----|--------0------------0|
D|-0------0-------0----0------|----------0------------0--|----0-----0------0----|
A|----------------------------|--------------------------|----------------------|
E|----------------------------|-3----3-------3----3------|-3----3-------3-------|

   C                          Dadd4add9                  G
e|--------------------------|--------------------------|---------------------|
B|----1-------1----1-------1|----3-------3----3-------3|----0-------0--------|
G|----0---0--------0---0----|----0---0--------0---0----|----0---0------------|
D|----------2------------2--|----------4------------4--|----------0----------|
A|-3----3-------3----3------|-5----5-------5----5------|---------------------|
E|--------------------------|--------------------------|-3----3--------------|

   G/F#          Em                    Am
e|-------------|--------------0------|-------------------------------|
B|----0-------0|----0-------0---0---0|-0h1-------1-----1--------1----|
G|----0---0----|----0---0---------0--|-------2-------2------2-------2|
D|----------0--|----------2----------|-----2-------2------2-------2--|
A|-------------|---------------------|-0-------0-------0------0------|
E|-2----2------|-0----0-------0------|-------------------------------|

   D
e|----0h2-------2----2-------2|
B|----3-----3--------3---3----|
G|------------2------------2--|
D|-0------0-------0----0------|
A|----------------------------|
E|----------------------------|

  G            C    Dadd4add9 G
|---------------------------|------3----------------------|
|----0-------0----1--------3|-----0-----------------------|
|----0---0--------0----0----|----0------------------------|
|----------0-------------4--|---0-------------------------|
|--------------3-----5------|--2--------------------------|
|-3----3--------------------|-3---------------------------|


-------------------------------------------------------------------------------
                                Lyrics
-------------------------------------------------------------------------------

Intro
-----

G  C  D  C  G  C  Dadd4add9  G x2


Verse
-----

     G                   C
It's funny with age, you get to the stage,

     D                          C
your head and your heart aren't on the same page;

     G                                 C                        G
your heart will wait forever, but your skin says you're getting old.

                    C
Good things come to those who wait,

    D                         C
the lights were up and it was getting late;

    G                     C to Dadd4add9    G
she wore my coat 'cos she said that she was cold.


Pre-chorus
----------

C                                   G
Funny how quick a coat turns into a ring.

Em                                  D
Looking back now I don't remember a thing.


First Chorus
------------

C                       Dadd4add9               G
We don't talk about the writing on the wall;

G/F#              Em            Am
somedays we don't talk at all,

                    D                  G        G7      C
when the lights are dim and my time is free.

                            Dadd4add9                   G
I sometimes think about the good times that I missed,

            G/F#            Em                          Am
I sometimes think about the girls I could've kissed,

                  D                       G
but I settled for her and she settled for me.

G  C  D  C  G  C  Dadd4add9  G


Second Verse
------------

                         C
It's funny how time just seems to fly,

    D                         C
you blink your eyes and it'll pass you by,

G                      C                      G
before too long you're getting on the bus for free.

                  C
Same old routine, same old blue jeans,

D                    C                  G  C  Dadd4add9 G
same old nightmares, different dreams.


Pre-chorus
----------

C                                  G
Funny how quick the days turn into years.

Em                             D
Funny some people change, some disappear.


Second Chorus
-------------

C                       Dadd4add9               G
We don't talk about the writing on the wall;

      G/F#              Em              Am
hell, somedays we don't talk at all,

                    D                  G        G7      C
when the lights are dim and my time is free.

                            Dadd4add9                   G
I sometimes think about the good times that I missed,

            G/F#            Em                          Am
I sometimes think about the girls I could've kissed,

                  D                       G     G7
but I settled for her and she settled for me.


Bridge
------

C                      Em               Am
Ain't it funny how you miss someone,

                              D         G
you sat there next to them at home.

         G/F#      Em                           Am
Ain't it funny how hard we are to change,

                       D        C
like we're made out of stone.


Final Chorus
------------

                        Dadd4add9               G
We don't talk about the writing on the wall;

      G/F#              Em              Am
hell, somedays we don't talk at all,

                    D                  G        G7      C
when the lights are dim and my time is free.

                            Dadd4add9                   G
I sometimes think about the good times that I missed,

            G/F#            Em                          Am
I sometimes think about the girls I could've kissed,

                  D                       G     C  Dadd4add9  G
but I settled for her and she settled for me.

            
Submit corrections

↑ Back to top | Tablatures and chords for acoustic guitar and electric guitar, ukulele, drums are parodies/interpretations of the original songs. You may use it for private study, scholarship, research or language learning purposes only