» » »

Passenger - Restless Wind Tabs

Artists:  A B C D E F G H I J K L M N O P Q R S T U V W X Y Z # 

Restless Wind Tabs

(ver. 1) Click to play this song!
Passenger
 Rating:
3.9/5 (22 votes)
                
Tuning: EADGBe (Standard)
Capo: 6/7

Main chords:

    G      Bm*     C    Cm*    D    Am7

e|--3-----2--0-----0-----x-----2-----0-----|   
B|--3-----3--3-----1-----4-----3-----1-----|
G|--0-----0--0-----0-----0-----2-----0-----|
D|--0-----0--0-----2-----5-----0-----2-----|
A|-(2)----2--2-----3-----3-----x-----0-----|
E|--3-----x--x-----x-----x-----x-----x-----|

Intro:

e|--3-------------------------0-------------------0---------0----------------|
B|--3-3-------3-----------3-------3-------3----------------------------------|
G|--0-----0-----------0---------------0-------0-----0---0-------0---0--------|
D|----0-----0-----0-----0---0-------0-----0-----0---------2-----------2------|
A|------------------------2-----2-------2---2-----3---3-------3---3----------|
E|--3---3-------3---3--------------------------------------------------------|

e|----------------------------------------------------3-------------0--------|
B|--4---------4-----------0-------------3-------3/5-------5-------3----------|
G|--------0-----------0---------0---2-------2---------------2/4--------------|
D|----5-----5-----5-----5---0-----0---0-------0-----0-----------0------------|
A|--3---3-------3---3--------------------------------------------------------|
E|------------------------3---3-----2-----2-----0-------0---0----------------|

e|----------------3-----------2-------2---2-------2--------------------------|
B|----1-------1-----------1-------3-----------3------------------------------|
G|--------0-----------0-------2-----2-----2-----2----------------------------|
D|----2-----2-----2-----2---0---0-------0---0--------------------------------|
A|--3---3-------3---3--------------------------------------------------------|
E|---------------------------------------------------------------------------|

Verse 1:

Well hello, there restless wind, it's been a long time since you've

e|------------------------------------------------------|
B|----0-------0---0-------0---3-------3---3-------3-----|
G|--------0-----------0-----------0-----------0---------|
D|----0-----0-----0-----0-----0-----0-----0-----0-------|
A|--------------------------2---2-------2---2-----------|
E|--3---3-------3---3-----------------------------------|

blown through these streets - I really don't mind if

e|------------------------------------------------------|
B|----1-------1---1-------1---4-------4---4-------4-----|
G|--------0-----------0-----------0-----------0---------|
D|----2-----2-----2-----2-----5-----5-----5-----5-------|
A|--3---3-------3---3-------3---3-------3---3-----------|
E|------------------------------------------------------|

you picked me up of my feet just one last time and

e|------------------------------------------------------|
B|----0-------0---3-------3---0-------0---0-------0-----|
G|--------0-----------0-----------0-----------0---------|
D|----0-----0-----0-----0-----2-----2-----2-----0-------|
A|--------------2---2-----------------------------------|
E|--3---3-------------------0---0-------0---0-----------|

take me ...      where you've got to go            I've been

e|----------------------------2-------2---2-------2-----|
B|----1-------1---1-------1-------3-----------3---------|
G|--------0-----------0-------2-----2-----2-----2-------|
D|----2-----2-----2-----2---0---0-------0---0-----------|
A|--0---0-------0---0-----------------------------------|
E|------------------------------------------------------|

tied to a mast..           anchored to a shore,

e|------------------------------------------------------|
B|----0-------0---0-------0---3-------3---3-------3-----|
G|--------0-----------0-----------0-----------0---------|
D|----0-----0-----0-----0-----0-----0-----0-----0-------|
A|--------------------------2---2-------2---2-----------|
E|--3---3-------3---3-----------------------------------|

buried in the earth and rooted to the floor

e|------------------------------------------------------|
B|----1-------1---1-------1---4-------4---4-------4-----|
G|--------0-----------0-----------0-----------0---------|
D|----2-----2-----2-----2-----5-----5-----5-----5-------|
A|--3---3-------3---3-------3---3-------3---3-----------|
E|------------------------------------------------------|

as long as you're willing then I'll be sure to go

e|------------------------------------------------------|
B|----0-------0---3-------3---0-------0---0-------0-----|
G|--------0-----------0-----------0-----------0---------|
D|----0-----0-----0-----0-----2-----2-----2-----0-------|
A|--------------2---2-----------------------------------|
E|--3---3-------------------0---0-------0---0-----------|

with you...     where you've got to go...           oh I 

e|----------------------------2-------2---2-------2-----|
B|----1-------1---1-------1-------3-----------3---------|
G|--------0-----------0-------2-----2-----2-----2-------|
D|----2-----2-----2-----2---0---0-------0---0-----------|
A|--0---0-------0---0-----------------------------------|
E|------------------------------------------------------|

don't mind..   where it is we go..

e|----------------------------2-------2---2-------2-----|
B|----1-------1---1-------1-------3-----------3---------|
G|--------0-----------0-------2-----2-----2-----2-------|
D|----2-----2-----2-----2---0---0-------0---0-----------|
A|--0---0-------0---0-----------------------------------|
E|------------------------------------------------------

Instrumental:

e|--3---------3-----------2---------2-----------0---------0----------------|
B|--3-3-----------3---------3-----------3----------------------------------|
G|--0-----0-----------0---------0-----------0-----0---0-------0---0--------|
D|----0-----0-----0-----0---0-----0-----0-----0---------2-----------2------|
A|------------------------2---2-------2---2-----3---3-------3---3----------|
E|--3---3-------3---3------------------------------------------------------|

e|------6---------------------3---------3---------------3-------------0----|
B|--4-------4-------4-------4-3-3-------3-3-------3/5-----5-------3--------|
G|--------------0-------0-----------0---------2-------------2/4------------|
D|----5-------5-----5-----5-----0-----0---0-----0-----0---------0----------|
A|--3-----3-------3---3----------------------------------------------------|
E|----------------------------3---3-----2---2-----0---------0-------0------|

e|----------------3-----------2-------2---2-------2------------------------|
B|----1-------1-----------1-------3-----------3----------------------------|
G|--------0-----------0-------2-----2-----2-----2--------------------------|
D|----2-----2-----2-----2---0---0-------0---0------------------------------|
A|--3---3-------3---3------------------------------------------------------|
E|-------------------------------------------------------------------------|

Verse 2:

From Northumberland's hills, Yorkshire and her moors, the

e|------------------------------------------------------|
B|----0-------0---0-------0---3-------3---3-------3-----|
G|--------0-----------0-----------0-----------0---------|
D|----0-----0-----0-----0-----0-----0-----0-----0-------|
A|--------------------------2---2-------2---2-----------|
E|--3---3-------3---3-----------------------------------|

mountains of North Wales to the Cornish shores, 

e|------------------------------------------------------|
B|----1-------1---1-------1---4-------4---4-------4-----|
G|--------0-----------0-----------0-----------0---------|
D|----2-----2-----2-----2-----5-----5-----5-----5-------|
A|--3---3-------3---3-------3---3-------3---3-----------|
E|------------------------------------------------------|

as long as you are mine then I'll be yours, I'll go

e|------------------------------------------------------|
B|----0-------0---3-------3---0-------0---0-------0-----|
G|--------0-----------0-----------0-----------0---------|
D|----0-----0-----0-----0-----2-----2-----2-----0-------|
A|--------------2---2-----------------------------------|
E|--3---3-------------------0---0-------0---0-----------|

with you, where you've got to go..                 We'll leave 

e|----------------------------2-------2---2-------2-----|
B|----1-------1---1-------1-------3-----------3---------|
G|--------0-----------0-------2-----2-----2-----2-------|
D|----2-----2-----2-----2---0---0-------0---0-----------|
A|--0---0-------0---0-----------------------------------|
E|------------------------------------------------------|

England's green, her old country lanes, over

e|------------------------------------------------------|
B|----0-------0---0-------0---3-------3---3-------3-----|
G|--------0-----------0-----------0-----------0---------|
D|----0-----0-----0-----0-----0-----0-----0-----0-------|
A|--------------------------2---2-------2---2-----------|
E|--3---3-------3---3-----------------------------------|

yellow fields of France, to the beaches of Spain,

e|------------------------------------------------------|
B|----1-------1---1-------1---4-------4---4-------4-----|
G|--------0-----------0-----------0-----------0---------|
D|----2-----2-----2-----2-----5-----5-----5-----5-------|
A|--3---3-------3---3-------3---3-------3---3-----------|
E|------------------------------------------------------|

as long as you promise to take me home again, I'll go

e|------------------------------------------------------|
B|----0-------0---3-------3---0-------0---0-------0-----|
G|--------0-----------0-----------0-----------0---------|
D|----0-----0-----0-----0-----2-----2-----2-----0-------|
A|--------------2---2-----------------------------------|
E|--3---3-------------------0---0-------0---0-----------|

with you...     where you've got to go...           oh I 

e|----------------------------2-------2---2-------2-----|
B|----1-------1---1-------1-------3-----------3---------|
G|--------0-----------0-------2-----2-----2-----2-------|
D|----2-----2-----2-----2---0---0-------0---0-----------|
A|--0---0-------0---0-----------------------------------|
E|------------------------------------------------------|

don't mind..   where it is we go..

e|----------------------------2-------2---2-------2-----|
B|----1-------1---1-------1-------3-----------3---------|
G|--------0-----------0-------2-----2-----2-----2-------|
D|----2-----2-----2-----2---0---0-------0---0-----------|
A|--0---0-------0---0-----------------------------------|
E|------------------------------------------------------|

Bridge:

Just take me from here,

e|----------------------------2-------2---2-------2-----|
B|----1-------1---1-------1-------3-----------3---------|
G|--------0-----------0-------2-----2-----2-----2-------|
D|----2-----2-----2-----2---0---0-------0---0-----------|
A|--3---3-------3---3-----------------------------------|
E|------------------------------------------------------|

Take me somewhere I can disappear,

e|------------------------------------------------------|
B|----0-------0---0-------0---0-------0---0-------0-----|
G|--------0-----------0-----------0-----------0---------|
D|----0-----0-----0-----0-----2-----2-----2-----0-------|
A|------------------------------------------------------|
E|--3---3-------2---2-------0---0-------0---0-----------|

You take me anywhere my dear..

e|----------------------------2-------2---2-------2-----|
B|----1-------1---1-------1-------3-----------3---------|
G|--------0-----------0-------2-----2-----2-----2-------|
D|----2-----2-----2-----2---0---0-------0---0-----------|
A|--0---0-------0---0-----------------------------------|
E|------------------------------------------------------|

e|------------0-----------------------------------------|
B|----3-----------3-------1---0-------0---0-------0-----|
G|--------0-----------0-----------0-----------0---------|
D|----0-----0-----0-----0-----0-----0-----0-----0-------|
A|------------------------------------------------------|
E|--3---3-------3---3-------3---3-------3---3-----------|

Oh and carry me away,

e|----------------------------2-------2---2-------2-----|
B|----1-------1---1-------1-------3-----------3---------|
G|--------0-----------0-------2-----2-----2-----2-------|
D|----2-----2-----2-----2---0---0-------0---0-----------|
A|--3---3-------3---3-----------------------------------|
E|------------------------------------------------------|

Take me from this old dark day..

e|------------------------------------------------------|
B|----0-------0---0-------0---0-------0---0-------0-----|
G|--------0-----------0-----------0-----------0---------|
D|----0-----0-----0-----0-----2-----2-----2-----0-------|
A|------------------------------------------------------|
E|--3---3-------2---2-------0---0-------0---0-----------|

Restless wind, will you blow my way?

e|----------------------------2-----|
B|----1-------1---1-------1---------|
G|--------0-----------0-------2-----|
D|----2-----2-----2-----2---0-------|
A|--0---0-------0---0---------------|
E|----------------------------------|

Outro:

e|--3---------3-----------2---------------------0---------0----------------|
B|--3-3-----------3---------3-------3---3----------------------------------|
G|--0-----0-----------0---------0-----------0-----0---0-------0---0--------|
D|----0-----0-----0-----0---0-----0-----0-----0---------2-----------2------|
A|------------------------2---2-------2---2-----3---3-------3---3----------|
E|--3---3-------3---3------------------------------------------------------|

e|------6---------------------3---------3---------------3-------------0----|
B|--4-------4-------4-------4-3-3-------3-3-------3/5-----5-------3--------|
G|--------------0-------0-----------0---------2-------------2/4------------|
D|----5-------5-----5-----5-----0-----0---0-----0-----0---------0----------|
A|--3-----3-------3---3----------------------------------------------------|
E|----------------------------3---3-----2---2-----0---------0-------0------|

e|----------------3---------2-0-------------------3------------------------|
B|----1-------1-----------1-3---3-1-0-----------3-3------------------------|
G|--------0-----------0-----2---------2-0-----0---0------------------------|
D|----2-----2-----2-----2---0-------------3/4------------------------------|
A|--3---3-------3---3------------------------------------------------------|
E|------------------------------------------------3------------------------|            
Submit corrections

↑ Back to top | Tablatures and chords for acoustic guitar and electric guitar, ukulele, drums are parodies/interpretations of the original songs. You may use it for private study, scholarship, research or language learning purposes only