» » »

Passenger - My Hearts On Fire Tabs

Artists:  A B C D E F G H I J K L M N O P Q R S T U V W X Y Z # 

My Hearts On Fire Tabs

(ver. 1) Click to play this song!
Passenger
 Rating:
4/5 (4 votes)


 My Hearts On Fire lessons Tabs too difficult? Try these video lessons and learn fast
 
                Passenger - Heart's on Fire


Standard Tuning
Capo 7
(/) Slide Up  (\) Slide Down  (h) Hammer On  (p) Pull Off  (b) Bend (r) Release (v) Vibrato

INTRO:
      C                                                         F
E|--0-------------------0-----------------------------------------------------|
B|--1--------1/3--------1--1-------------1-----------1---------1-----------1--|
G|--0-----0----------0-----0--------0/2--------2---------------------2--------|
D|--2--2----------2--------2-------------3--------3------------3--------3-----|
A|--3--------3----------3-----------------------------------------------------|
E|----------------------------------1-------1---------------1-----1-----------|



E|-------------------------------------------------------------------------------|
B|-----------1-------------1--1/3--1-----------1-----------1---------1--------1--|
G|--------0-------------0----------0------0/2--------2------------------2--------|
D|-----2-------------2-------------2-----------3--------3------------3-----3-----|
A|--3-------------------------3--------------------------------------------------|
E|----------------3-----------------------1-------1---------------1--------------|


      Am              C/G                 C       F
E|--3p0-------------------0-----------------------------------------------|
B|-------------1/3-----------1-------1-----------1---------1-----------1--|
G|----------2----------0--------0/2--------2---------------------2--------|
D|-------2----------2--------2-------3--------3------------3--------3-----|
A|--0---------------------3-----------------------------------------------|
E|-------------3----------------1-------1---------------1-----1-----------|


       C                          C/G                    C               F
E|-----------------------------------------------------------------|
B|-----------1---------------1----1/3--1---------1-----------1-----|
G|--------0---------------0-----------------0/2--------2-----------|
D|-----2---------------2---------------2---------3--------3--------|
A|--3-----------------------------3--------------------------------|
E|------------------3-----------------------1-------1--------------|



VERSE 1:
     C                       C/G                     C                       F
E|---------------------------------------------------------------------------------|
B|-----------1-------------1-------------1-------1-----------1-----1-----------1---|
G|--------0-------------0-------------0----------------2-----------------2---------|
D|-----2-------------2-------------2-------------3--------3--------3--------3------|
A|--3---------------------------3--------------------------------------------------|
E|----------------3---------------------------1-----1-----------1-----1------------|X2


      Am                 C/G                    C                 F
E|-----------------------------------------------------------------------------|
B|-----------1-----------1-----------1-----1-----------1-----1-----------1-----|
G|--------2-----------0-----------0--------------2-----------------2-----------|
D|-----2-----------2-----------2-----------3--------3--------3--------3--------|
A|--0-----------------------3--------------------------------------------------|
E|--------------3-----------------------1-----1-----------1-----1--------------|

       C                       C/G                     C                     F
E|--------------------------------------------------------------------------------|
B|-----------1-------------1-------------1-------1-----------1-----1-----------1--|
G|--------0-------------0-------------0----------------2-----------------2--------|
D|-----2-------------2-------------2-------------3--------3--------3--------3-----|
A|--3---------------------------3-------------------------------------------------|
E|----------------3---------------------------1-----1-----------1-----1-----------|


CHORUS:

      C/G                  C/G                    C              F
E|--------------------------------------------------------------------------|
B|-----------1-----------1-----------1-----1-----------1-----1-----------1--|
G|--------0-----------0-----------0--------------2-----------------2--------|
D|-----2-----------2-----------2-----------3--------3--------3--------3-----|
A|--------------------------3-----------------------------------------------|
E|--3-----------3-----------------------1-----1-----------1-----1-----------| X3

WHEN THE CHORUS ENDS THERE IS A TRANSITION TO GO TO THE NEXT VERSE.
YOU PLAY THE FIRST PART OF THE INTRO:

E|--0-------------------0-----------------------------------------------------|
B|--1--------1/3--------1--1-------------1-----------1---------1-----------1--|
G|--0-----0----------0-----0--------0/2--------2---------------------2--------|
D|--2--2----------2--------2-------------3--------3------------3--------3-----|
A|--3--------3----------3-----------------------------------------------------|
E|----------------------------------1-------1---------------1-----1-----------|

VERSE 2 same as the first:

       C                       C/G                     C                      F
E|---------------------------------------------------------------------------------|
B|-----------1-------------1-------------1-------1-----------1-----1-----------1---|
G|--------0-------------0-------------0----------------2-----------------2---------|
D|-----2-------------2-------------2-------------3--------3--------3--------3------|
A|--3---------------------------3--------------------------------------------------|
E|----------------3---------------------------1-----1-----------1-----1------------|X2

     Am                 C/G                    C                 F
E|-----------------------------------------------------------------------------|
B|-----------1-----------1-----------1-----1-----------1-----1-----------1-----|
G|--------2-----------0-----------0--------------2-----------------2-----------|
D|-----2-----------2-----------2-----------3--------3--------3--------3--------|
A|--0-----------------------3--------------------------------------------------|
E|--------------3-----------------------1-----1-----------1-----1--------------|

      C                       C/G                     C                       F
E|--------------------------------------------------------------------------------|
B|-----------1-------------1-------------1-------1-----------1-----1-----------1--|
G|--------0-------------0-------------0----------------2-----------------2--------|
D|-----2-------------2-------------2-------------3--------3--------3--------3-----|
A|--3---------------------------3-------------------------------------------------|
E|----------------3---------------------------1-----1-----------1-----1-----------|

OUTRO same as chorus:
      C/G                  C/G                    C               F
E|--------------------------------------------------------------------------|
B|-----------1-----------1-----------1-----1-----------1-----1-----------1--|
G|--------0-----------0-----------0--------------2-----------------2--------|
D|-----2-----------2-----------2-----------3--------3--------3--------3-----|
A|--------------------------3-----------------------------------------------|
E|--3-----------3-----------------------1-----1-----------1-----1-----------|
            
Submit corrections



        My Hearts On Fire lessons Hard to play? Try these video lessons and learn fast My Hearts On Fire lessons
        
↑ Back to top | Tablatures and chords for acoustic guitar and electric guitar, ukulele, drums are parodies/interpretations of the original songs. You may use it for private study, scholarship, research or language learning purposes only