» » »

Passenger - Intacto Tabs

Artists:  A B C D E F G H I J K L M N O P Q R S T U V W X Y Z # 

Intacto Tabs

(ver. 1) Click to play this song!
Passenger
 Rating:
4/5 (4 votes)
    Intacto  lessons Tabs too difficult? Try these video lessons and learn fast
                Tuning: Standard
Capo: 8
Chords used:
G   (320003)
G*  (320010)
Em  (022000)
C   (032010)
Am7 (002010)


[INTRO / VERSE]

   G*                       Em
e|-------------|         e|-------------|
B|---1-------1-| x4      B|---0-------0-| x4
G|---0---0-----|         G|---0---0-----|
D|---------0---|         D|---------2---|
A|-------------|         A|-------------|
E|-3---3-------|         E|-0---0-------|



[CHORUS]

   G                        C                        Am7
e|-------------|         e|-------------|         e|-------------|
B|---0-------0-| x4      B|---1-------1-| x2      B|---1-------1-| x2
G|---0---0-----|         G|---0---0-----|         G|---0---0-----|
D|---------0---|         D|---------2---|         D|---------2---|
A|-------------|         A|-3---3-------|         A|-0---0-------|
E|-3---3-------|         E|-------------|         E|-------------|


[VARIATION 1]

                    G
e|---------------------------------------------------------------------------|
B|--------------------0-------0---0-------0---0-------0----------------------|
G|--------------------0---0-------0---0-------0---0--------------------------|
D|--------------------------0-----------0-----------0------------------------|
A|---------------------------------------------------------------------------|
E|------------------3---3-------2---2-------0---0----------------------------|

  When it all falls down,       down,       down


[VARIATION 2]

   C                       Am7 C                        Am7   C                        Em
e|------------------------------------------------------------------------------------------|
B|---1-------1---1-------1-----1------------------------1-----1------------------------0----|
G|---0---0-------0---0---------0------------------------0-----0------------------------0----|
D|---------0-----------0---------------------------------------------------------------2----|
A|-3---3-------3---3-------0---3------------------------0-----3------------------------2----|
E|-------------------------------------------------------------------------------------0----|
            
Submit corrections

↑ Back to top | Tablatures and chords for acoustic guitar and electric guitar, ukulele, drums are parodies/interpretations of the original songs. You may use it for private study, scholarship, research or language learning purposes only