» » »

Passenger - Fairytales And Firesides Tabs

Artists:  A B C D E F G H I J K L M N O P Q R S T U V W X Y Z # 

Fairytales And Firesides Tabs

(ver. 1) Click to play this song!
Passenger
 Rating:
3.6/5 (22 votes)
                INTRO
e|-------------------------------------------------------------------------------------------------|
B|---1-----1-----1-----1-----1-----1-----1-----1-----1-----1-----1-----1-----1-----1-----1-----1---|
G|-----0-----0-----0-----0-----0-----0-----0-----0-----0-----0-----0-----0-----0-----0-----0-----0-|
D|-------3-----2-----0-----------2-----2-----2-----------3-----2-----0-----------2-----2-----2-----|
A|-3-----------------------3-----------------------3-----------------------3-----------------------|
E|-------------------------------------------------------------------------------------------------|

e|-------------------------------------------------------------------------|
B|---1-----1-----1-----1-----1-----1-----1-----1-----1-----1-----1-----1---|
G|-----0-----0-----0-----0-----0-----0-----0-----0-----0-----0-----0-----0-|
D|-------3-----2-----0-----------2-----2-----2-----------2-----2-----2-----|
A|-3-----------------------3-----------------------3-----------------------|
E|-------------------------------------------------------------------------|



VERSE 1
e|-------------------------------------------------------------------------------------------------|
B|---1-----1-----1-----1-----1-----1-----1-----1-----1-----1-----1-----1-----1-----1-----1-----1---|
G|-----0-----0-----0-----0-----0-----0-----0-----0-----0-----0-----0-----0-----0-----0-----0-----0-|
D|-------2-----2-----2-----3-----2-----0-----2-----------2-----2-----2-----------2-----2-----2-----|
A|-3-----------------------------------------------3-----------------------3-----------------------|
E|-------------------------------------------------------------------------------------------------|

We are bitter losers, snarling through our smiles


e|-------------------------------------------------------------------------------------------------|
B|---1-----1-----1-----1-----1-----1-----1-----1-----1-----1-----1-----1-----0-----0-----0-----0---|
G|-----0-----0-----0-----0-----0-----0-----0-----0-----0-----0-----0-----0-----0-----0-----0-----0-|
D|-------2-----2-----2-----------3-----3-----3-----------0-----0-----0-----------0-----0-----0-----|
A|-0-----------------------------------------------------------------------------------------------|
E|-------------------------1-----------------------3-----------------------3-----------------------|

We're the lost boys in the super market aisles 


e|-------------------------------------------------------------------------------------------------|
B|---1-----1-----1-----1-----0-----0-----0-----0-----1-----1-----1-----1-----1-----1-----1-----1---|
G|-----0-----0-----0-----0-----0-----0-----0-----0-----0-----0-----0-----0-----0-----0-----0-----0-|
D|-------3-----3-----3-----------0-----0-----0-----------2-----------0-----------2-----2-----2-----|
A|-------------------------------------------------3-----------2-----------0-----------------------|
E|-1-----------------------3-----------------------------------------------------------------------|

We're Christmas dogs dumped by the side of the road; confused, we will run for miles


e|-------------------------------------------------------------------------------------------------|
B|---1-----1-----1-----1-----0-----0-----0-----0-----1-----1-----1-----1-----1-----1-----1-----1---|
G|-----0-----0-----0-----0-----0-----0-----0-----0-----0-----0-----0-----0-----0-----0-----0-----0-|
D|-------3-----3-----3-----------0-----0-----0-----------2-----2-----2-----------2-----2-----2-----|
A|-------------------------------------------------3-----------------------3-----------------------|
E|-1-----------------------3-----------------------------------------------------------------------|

We are road rage, we are stone age, we are wild


e|-------------------------------------------------------------------------------------------------|
B|---1-----1-----1-----1-----1-----1-----1-----1-----1-----1-----1-----1-----1-----1-----1-----1---|
G|-----0-----0-----0-----0-----0-----0-----0-----0-----0-----0-----0-----0-----0-----0-----0-----0-|
D|-------2-----2-----2-----------3-----3-----3-----------2-----2-----2-----------2-----2-----2-----|
A|-3-----------------------------------------------3-----------------------3-----------------------|
E|-------------------------1-----------------------------------------------------------------------|

We are busted lightbulbs in a backstreet neon sign


e|-------------------------------------------------------------------------------------------------|
B|---1-----1-----1-----1-----1-----1-----1-----1-----1-----1-----1-----1-----0-----0-----0-----0---|
G|-----0-----0-----0-----0-----0-----0-----0-----0-----0-----0-----0-----0-----0-----0-----0-----0-|
D|-------2-----2-----2-----------3-----3-----3-----------0-----0-----0-----------0-----0-----0-----|
A|-0-----------------------------------------------------------------------------------------------|
E|-------------------------1-----------------------3-----------------------3-----------------------|

We're the shaking gun in a service station line


e|-------------------------------------------------------------------------------------------------|
B|---1-----1-----1-----1-----0-----0-----0-----0-----1-----1-----1-----1-----1-----1-----1-----1---|
G|-----0-----0-----0-----0-----0-----0-----0-----0-----0-----0-----0-----0-----0-----0-----0-----0-|
D|-------3-----3-----3-----------0-----0-----0-----------2-----------0-----------2-----2-----2-----|
A|-------------------------------------------------3-----------2-----------0-----------------------|
E|-1-----------------------3-----------------------------------------------------------------------|

We drink though we're drunk, we sink though we've sunk, we're f**ked but we'll say that we're fine


e|-------------------------------------------------------------------------------------------------|
B|---1-----1-----1-----1-----0-----0-----0-----0-----1-----1-----1-----1-----1-----1-----1-----1---|
G|-----0-----0-----0-----0-----0-----0-----0-----0-----0-----0-----0-----0-----0-----0-----0-----0-|
D|-------3-----3-----3-----------0-----0-----0-----------2-----2-----2-----------2-----2-----2-----|
A|-------------------------------------------------3-----------------------3-----------------------|
E|-1-----------------------3-----------------------------------------------------------------------|

We are rampage, missing back pages in our spines



CHORUS 1
e|-------------------------------------------------------------------------------------------------|
B|---1-----1-----1-----1-----1-----1-----1-----1-----1-----1-----1-----1-----0-----0-----0-----0---|
G|-----0-----0-----0-----0-----0-----0-----0-----0-----0-----0-----0-----0-----0-----0-----0-----0-|
D|-------3-----3-----3-----------3-----3-----3-----------2-----2-----2-----------0-----0-----0-----|
A|-------------------------------------------------3-----------------------------------------------|
E|-1-----------------------1-----------------------------------------------3-----------------------|

We long for journeys and the roadside


e|-------------------------------------------------------------------------------------------------|
B|---1-----1-----1-----1-----1-----1-----1-----1-----1-----1-----1-----1-----0-----0-----0-----0---|
G|-----0-----0-----0-----0-----0-----0-----0-----0-----0-----0-----0-----0-----0-----0-----0-----0-|
D|-------3-----3-----3-----------3-----3-----3-----------2-----2-----2-----------0-----0-----0-----|
A|-------------------------------------------------3-----------------------------------------------|
E|-1-----------------------1-----------------------------------------------3-----------------------|

We long for starlight and the low tide


e|-------------------------------------------------------------------------------------------------|
B|---1-----1-----1-----1-----1-----1-----1-----1-----1-----1-----1-----1-----0-----0-----0-----0---|
G|-----0-----0-----0-----0-----0-----0-----0-----0-----0-----0-----0-----0-----0-----0-----0-----0-|
D|-------3-----3-----3-----------3-----3-----3-----------2-----2-----2-----------0-----0-----0-----|
A|-------------------------------------------------0-----------------------------------------------|
E|-1-----------------------1-----------------------------------------------3-----------------------|

Yeah we long for fairytales and firesides tonight


e|-------------------------------------------------------------------------------------------------|
B|---1-----1-----1-----1-----1-----1-----1-----1-----1-----1-----1-----1-----1-----1-----1-----1---|
G|-----0-----0-----0-----0-----0-----0-----0-----0-----0-----0-----0-----0-----0-----0-----0-----0-|
D|-3-----2-----0-----------2-----2-----2-----------3-----2-----0-----------2-----2-----2-----2-----|
A|-------------------3-----------------------3-----------------------3-----------------------------|
E|-------------------------------------------------------------------------------------------------|

e|-------------------------|
B|---1-----1-----1-----1---|
G|-----0-----0-----0-----0-|
D|-------2-----2-----2-----|
A|-3-----------------------|
E|-------------------------|



VERSE 2
e|-------------------------------------------------------------------------------------------------|
B|---1-----1-----1-----1-----1-----1-----1-----1-----1-----1-----1-----1-----1-----1-----1-----1---|
G|-----0-----0-----0-----0-----0-----0-----0-----0-----0-----0-----0-----0-----0-----0-----0-----0-|
D|-------2-----2-----2-----3-----2-----0-----2-----------2-----2-----2-----------2-----2-----2-----|
A|-3-----------------------------------------------3-----------------------3-----------------------|
E|-------------------------------------------------------------------------------------------------|

We are coffee house cynics; too righteous, too rigid to believe


e|-------------------------------------------------------------------------------------------------|
B|---1-----1-----1-----1-----1-----1-----1-----1-----1-----1-----1-----1-----0-----0-----0-----0---|
G|-----0-----0-----0-----0-----0-----0-----0-----0-----0-----0-----0-----0-----0-----0-----0-----0-|
D|-------2-----2-----2-----------3-----3-----3-----------0-----0-----0-----------0-----0-----0-----|
A|-0-----------------------------------------------------------------------------------------------|
E|-------------------------1-----------------------3-----------------------3-----------------------|

Disappointed romantics, scr*ping the hearts from our sleeves


e|-------------------------------------------------------------------------------------------------|
B|---1-----1-----1-----1-----0-----0-----0-----0-----1-----1-----1-----1-----1-----1-----1-----1---|
G|-----0-----0-----0-----0-----0-----0-----0-----0-----0-----0-----0-----0-----0-----0-----0-----0-|
D|-------3-----3-----3-----------0-----0-----0-----------2-----------0-----------2-----2-----2-----|
A|-------------------------------------------------3-----------2-----------0-----------------------|
E|-1-----------------------3-----------------------------------------------------------------------|

We're the toothless drunk, we're the aging punk, yeah, we are Adam with the apple and we're Eve


e|-------------------------------------------------------------------------------------------------|
B|---1-----1-----1-----1-----0-----0-----0-----0-----1-----1-----1-----1-----1-----1-----1-----1---|
G|-----0-----0-----0-----0-----0-----0-----0-----0-----0-----0-----0-----0-----0-----0-----0-----0-|
D|-------3-----3-----3-----------0-----0-----0-----------2-----2-----2-----------2-----2-----2-----|
A|-------------------------------------------------3-----------------------3-----------------------|
E|-1-----------------------3-----------------------------------------------------------------------|

We are beggars with shiny pennies on our knees



CHORUS 2
e|-------------------------------------------------------------------------------------------------|
B|---1-----1-----1-----1-----1-----1-----1-----1-----1-----1-----1-----1-----0-----0-----0-----0---|
G|-----0-----0-----0-----0-----0-----0-----0-----0-----0-----0-----0-----0-----0-----0-----0-----0-|
D|-------3-----3-----3-----------3-----3-----3-----------2-----2-----2-----------0-----0-----0-----|
A|-------------------------------------------------3-----------------------------------------------|
E|-1-----------------------1-----------------------------------------------3-----------------------|

We long for sunlight on the hillside


e|-------------------------------------------------------------------------------------------------|
B|---1-----1-----1-----1-----1-----1-----1-----1-----1-----1-----1-----1-----0-----0-----0-----0---|
G|-----0-----0-----0-----0-----0-----0-----0-----0-----0-----0-----0-----0-----0-----0-----0-----0-|
D|-------3-----3-----3-----------3-----3-----3-----------2-----2-----2-----------0-----0-----0-----|
A|-------------------------------------------------3-----------------------------------------------|
E|-1-----------------------1-----------------------------------------------3-----------------------|

Yeah we long for yesterdays and hindsight


e|-------------------------------------------------------------------------------------------------|
B|---1-----1-----1-----1-----1-----1-----1-----1-----1-----1-----1-----1-----0-----0-----0-----0---|
G|-----0-----0-----0-----0-----0-----0-----0-----0-----0-----0-----0-----0-----0-----0-----0-----0-|
D|-------3-----3-----3-----------3-----3-----3-----------2-----2-----2-----------0-----0-----0-----|
A|-------------------------------------------------0-----------------------------------------------|
E|-1-----------------------1-----------------------------------------------3-----------------------|

Oh, we long for fairytales and firesides



SOLO
e|---1-----1-----------------------------------------1-----1---------------------------------------|
B|-----3-----3---1-----1-----0-----0-----1-----1-------3-----3---1-----1-----0-----0-----1-----1---|
G|-------2---------0-----0-----0-----0-----0-----0-------2---------0-----0-----0-----0-----0-----0-|
D|-0-----------------2-----------0-----------2-----0-----------------2-----------2-----------2-----|
A|-------------0-----------------------0-----------------------0-----------------------0-----------|
E|-------------------------3-----------------------------------------------0-----------------------|

e|---1-----1-----------------------------------------1-----1---------------------------------------|
B|-----3-----3---1-----1-----0-----0-----1-----1-------3-----3---1-----1-----1-----1-----1-----1---|
G|-------2---------0-----0-----0-----0-----0-----0-------2---------0-----0-----0-----0-----0-----0-|
D|-0-----------------2-----------0-----------2-----0-----------------2-----------------------------|
A|-------------0-----------------------0-----------------------0-----------3-----2-----------2-----|
E|-------------------------3-----------------------------------------------------------3-----------|

e|---1-----1---------------------------------------------------------------------------------------|
B|-----3-----3---1-----1-----0-----0-----1-----1-----3-----3-----3-----3-----0-----0-----0-----0---|
G|-------2---------0-----0-----0-----0-----0-----0-----0-----0-----0-----0-----0-----0-----0-----0-|
D|-0-----------------2-----------0-----------2-----------3-----------3-----------0-----------0-----|
A|-------------0-----------------------0-----------1-----------1-----------------------------------|
E|-------------------------3-----------------------------------------------3-----------3-----------|



CHORUS 3
e|-------------------------------------------------------------------------------------------------|
B|---1-----1-----1-----1-----1-----1-----1-----1-----1-----1-----1-----1-----0-----0-----0-----0---|
G|-----0-----0-----0-----0-----0-----0-----0-----0-----0-----0-----0-----0-----0-----0-----0-----0-|
D|-------3-----3-----3-----------3-----3-----3-----------2-----2-----2-----------0-----0-----0-----|
A|-------------------------------------------------0-----------------------------------------------|
E|-1-----------------------1-----------------------------------------------3-----------------------|

Yeah we long for carnivals and fairground rides


e|-------------------------------------------------------------------------------------------------|
B|---1-----1-----1-----1-----1-----1-----1-----1-----1-----1-----1-----1-----0-----0-----0-----0---|
G|-----0-----0-----0-----0-----0-----0-----0-----0-----0-----0-----0-----0-----0-----0-----0-----0-|
D|-------3-----3-----3-----------3-----3-----3-----------2-----2-----2-----------0-----0-----0-----|
A|-------------------------------------------------0-----------------------------------------------|
E|-1-----------------------1-----------------------------------------------3-----------------------|

Oh, we long for journeys and the roadside


e|-------------------------------------------------------------------------------------------------|
B|---1-----1-----1-----1-----1-----1-----1-----1-----1-----1-----1-----1-----0-----0-----0-----0---|
G|-----0-----0-----0-----0-----0-----0-----0-----0-----0-----0-----0-----0-----0-----0-----0-----0-|
D|-------3-----3-----3-----------3-----3-----3-----------2-----2-----2-----------0-----0-----0-----|
A|-------------------------------------------------0-----------------------------------------------|
E|-1-----------------------1-----------------------------------------------3-----------------------|

Oh, we long for fairytales and firesides



OUTRO
e|-------------------------------------------------------------------------------------------------|
B|---1-----1-----1-----1-----0-----0-----0-----0-----1-----1-----1-----1-----0-----0-----0-----0---|
G|-----0-----0-----0-----0-----0-----0-----0-----0-----0-----0-----0-----0-----0-----0-----0-----0-|
D|-------2-----2-----2-----------0-----0-----0-----------2-----2-----2-----------0-----0-----0-----|
A|-0-----------------------------------------------0-----------------------------------------------|
E|-------------------------3-----------------------------------------------3-----------------------|

e|-------------------------------------------------|
B|---1-----1-----1-----1-----0-----0-----0-----0---|
G|-----0-----0-----0-----0-----0-----0-----0-----0-|
D|-------2-----2-----2-----------0-----0-----0-----|
A|-0-----------------------------------------------|
E|-------------------------3-----------------------|            
Submit corrections

↑ Back to top | Tablatures and chords for acoustic guitar and electric guitar, ukulele, drums are parodies/interpretations of the original songs. You may use it for private study, scholarship, research or language learning purposes only