» » »

Passenger - Darkest Days Tabs

Artists:  A B C D E F G H I J K L M N O P Q R S T U V W X Y Z # 

Darkest Days Tabs

(ver. 1) Click to play this song!
Passenger
 Rating:
4.3/5 (13 votes)
                [Intro]

e|-0---------------------3----------------------------------------0----------|
B|-------------1------------------0--------0h1-----------1-------------------|
G|-------0-----------0------0-----------0----------0-----------0---------0---|
D|----2-----------2------2-----------0----------2-----------2---------2------|
A|-3--------3------------------------------0----------0-----------3----------|
E|--------------------------------3------------------------------------------|

e|---------------------------------0-----------------------------------------------------------------|
B|------------------1-----------1---------------1--------0------------0--------1p0-----------0-------|
G|0---------0h2-----------2--------------0------------0--------0------------0----------0-----------0-|
D|---3-----------3-----------3--------2------------2--------0------------0----------0-----------0----|
A|---------------------------------3---------3-------------------------------------------------------|
E|1---------1----------1---------------------------------3---------3-----------3----------3----------|

e|-0---------------------3----------------------------------------0----------|
B|-------------1------------------0--------0h1-----------1-------------------|
G|-------0-----------0------0-----------0----------0-----------0---------0---|
D|----2-----------2------2-----------0----------2-----------2---------2------|
A|-3--------3------------------------------0----------0-----------3----------|
E|--------------------------------3------------------------------------------|

e|---------------------------------0-----------------------------------------------------------------|
B|------------------1-----------1---------------1--------0------------1--------3-------------0-------|
G|0---------0h2-----------2--------------0------------0--------0------------0----------0-----------0-|
D|---3-----------3-----------3--------2------------2--------0------------2----------0-----------0----|
A|---------------------------------3---------3---------------------0-----------2---------------------|
E|1---------1----------1---------------------------------3--------------------------------3----------|


[Verse]

e|----------------------------------------------------------------------------------|
B|1-----------1--------0-----------0--------1-----------1--------0-----------0------|
G|------0-----------0--------0-----------0--------0-----------0--------0-----------0|
D|---2-----------2--------0-----------0--------2-----------2--------2-----------2---|
A|3--------3--------------------------------0--------0------------------------------|
E|---------------------3--------3--------------------------------0--------0---------|

e|-------------------------0---------------------------------------------------------------|
B|--------1------------1---------------1--------1-----------1--------0-----------0---------|
G|0h2-----------2----------------2-----------2--------0-----------0--------0-----------0---|
D|-----3------------3---------3-----------3--------2-----------2--------0-----------0------|
A|----------------------------------------------3--------3---------------------------------|
E|1----------1-------------1--------1--------------------------------3--------3------------|

Play this part twice


[Chorus]

e|-------------------------0---------------------------------------------------------------|
B|--------1------------1---------------1--------1-----------1--------0-----------0---------|
G|0h2-----------2----------------2-----------2--------0-----------0--------0-----------0---|
D|-----3------------3---------3-----------3--------2-----------2--------0-----------0------|
A|-----------------------------------------------------------------------------------------|
E|1----------1-------------1--------1-----------3--------3-----------3--------3------------|

e|-----------------------------------------------------------------------------------------|
B|1------------1--------------0-----------0---0h1-----------1--------0------------0--------|
G|------0------------0--2-----------2-----------------0-----------0--------0------------0--|
D|---2------------2--------0-----------0-----------2-----------2--------0------------0-----|
A|3---------3-----------2--------2------------0----------0---------------------------------|
E|-------------------------------------------------------------------3---------3-----------|

e|-------------------------0---------------------------------------------------------------|
B|--------1------------1---------------1--------1-----------1--------0-----------0---------|
G|0h2-----------2----------------2-----------2--------0-----------0--------0-----------0---|
D|-----3------------3---------3-----------3--------2-----------2--------0-----------0------|
A|-----------------------------------------------------------------------------------------|
E|1----------1-------------1--------1-----------3--------3-----------3--------3------------|


[Interlude]

Play second half of the intro


Second verse and chorus are exactly the same


[Solo Bit]

e|0--------------------0-------------------------------------------0-------------------|
B|------------1--------------------1---------------1------------1--------------1-------|
G|------0-----------0--------0-----------0---3------------3--------------3------------0|
D|---2-----------2--------2-----------2---------2------------2--------2-----------2----|
A|3--------3-----------3--------3------------3---------3-----------3--------3----------|
E|-------------------------------------------------------------------------------------|

e|-----------------------3-----------------------------------------3-------------------|
B|--------1-----------1--------------1--------0-----------0--------------------0-------|
G|0h2-----------2--------------2-----------2--------0-----------0--------0-----------0-|
D|-----3-----------3--------3-----------3--------0-----------0--------0-----------0----|
A|-------------------------------------------------------------------------------------|
E|1----------1-----------1--------1-----------3--------3-----------3--------3----------|

e|0--------------------0-------------------------------------------0-------------------|
B|------------1--------------------1---------------1------------1--------------1-------|
G|------0-----------0--------0-----------0---3------------3--------------3------------0|
D|---2-----------2--------2-----------2---------2------------2--------2-----------2----|
A|3--------3-----------3--------3------------3---------3-----------3--------3----------|
E|-------------------------------------------------------------------------------------|

e|-----------------------3-----------------------------------------3p0--------------------|
B|--------1-----------1--------------1--------0-----------0-----------------------0-------|
G|0h2-----------2--------------2-----------2--------0-----------0-----------0-----------0-|
D|-----3-----------3--------3-----------3--------0-----------0-----------0-----------0----|
A|----------------------------------------------------------------------------------------|
E|1----------1-----------1--------1-----------3--------3-----------3-----------3----------|            
Submit corrections

↑ Back to top | Tablatures and chords for acoustic guitar and electric guitar, ukulele, drums are parodies/interpretations of the original songs. You may use it for private study, scholarship, research or language learning purposes only