» » »

Passenger - Catch In The Dark Tabs

Artists:  A B C D E F G H I J K L M N O P Q R S T U V W X Y Z # 

Catch In The Dark Tabs

(ver. 1) Click to play this song!
Passenger
 Rating:
3.3/5 (29 votes)


 Catch In The Dark  lessons Tabs too difficult? Try these video lessons and learn fast
 
                  C                     Em                    Fmaj7
e|---------------------------------------------------------------------------|
B|------1----------1----------0----------0----------1------------------------|
G|----------0----------0----------0----------0-0h2------2------0--0----------|
D|----2---2*-----2---2*-----2---2*-----2---2*-----3---3*-----3---------------|
A|-3----------3--------------------------------------------------------------|
E|-----------------------0----------0----------1----------1------------------|
   C                     Am         Em
e|---------------------------------------------------------------------------|
B|------1----------1----------1----------1-----0-----0-----0-----------------|
G|----------0----------0-0h2------2----------2-----0---------0---------------|
D|----2---2*-----2---2*-----2---2*-----2---2*----2-------2-------------------|
A|-3----------3----------0----------0----------------------------------------|
E|---------------------------------------------0-------0---------------------|
   Fmaj7                G
e|---------------------------------------------------------------------------|
B|------1--------------------1-----------1-----------------------------------|
G|-0h2------2------0--0-----------0-----------0------------------------------|
D|----3---3*-----3---------0---0*------0---0*--------------------------------|
A|---------------------------------------------------------------------------|
E|-1----------1---------3-----------3----------------------------------------|            
Submit corrections



        Catch In The Dark  lessons Hard to play? Try these video lessons and learn fast Catch In The Dark  lessons
        
↑ Back to top | Tablatures and chords for acoustic guitar and electric guitar, ukulele, drums are parodies/interpretations of the original songs. You may use it for private study, scholarship, research or language learning purposes only