» » »

Passenger - Boy Who Cried Wolf Tabs

Artists:  A B C D E F G H I J K L M N O P Q R S T U V W X Y Z # 

Boy Who Cried Wolf Tabs

(ver. 1) Click to play this song!
Passenger
 Rating:
4.3/5 (20 votes)


 Boy Who Cried Wolf  lessons Tabs too difficult? Try these video lessons and learn fast
 
                [Intro]

e|------------------------------------------------------------------------------------------|
B|---0--------0--------0--------0---------0--------0--------0--------0----------------------|
G|------0--------0--------0--------0---------0--------0--------0--------0-------------------|
D|---------0--------0--------0---------0--------0--------2--------0-------------------------|
A|------------------------------------------------------------------------------------------|
E|3-----------------------------------------------------------------------------------------|

e|------------------------------------------------------------------------------------------|
B|---0--------0--------0--------0---------0--------0--------0--------0----------------------|
G|------0--------0--------0--------0---------0--------0--------0--------0-------------------|
D|---------0--------0--------0---------2--------0-----------------0-------------------------|
A|-------------------------------------------------------2----------------------------------|
E|3-----------------------------------------------------------------------------------------|

Play twice then slow down and pause for a bit

e|--------------------------------------------------------------------------------|
B|---0----------0--------0----------0--------0----------0--------0----------0-----|
G|------0----------0--------0----------0--------0----------0--------0----------0--|
D|---------2p0-----------------2p0-----------------2p0-----------------2p0--------|
A|--------------------------------------------------------------------------------|
E|3-------------------3-------------------3-------------------3-------------------|

e|--------------------------------------------------------------------------------|
B|---0----------0--------0----------0--------0----------0--------0----------0-----|
G|------0----------0--------0----------0--------0----------0--------0----------0--|
D|---------2p0-----------------2p0-----------------2p0-----------------2p0--------|
A|3-------------------3-------------------3-------------------3-------------------|
E|--------------------------------------------------------------------------------|

e|--------------------------------------------------------------------------------|
B|---0----------0--------0----------0--------0----------0--------0----------0-----|
G|------0----------0--------0----------0--------0----------0--------0----------0--|
D|---------4p0-----------------4p0-----------------2p0-----------------2p0--------|
A|5-------------------5-------------------3-------------------3-------------------|
E|--------------------------------------------------------------------------------|

e|--------------------------------------------------------------------------------|
B|---0----------0--------0----------0--------0----------0--------0----------0-----|
G|------0----------0--------0----------0--------0----------0--------0----------0--|
D|---------2p0-----------------2p0-----------------2p0-----------------2p0--------|
A|--------------------------------------------------------------------------------|
E|3-------------------3-------------------3-------------------3-------------------|


e|--------------------------------------------------------------------------------|
B|---0-----1p0-----------0-----1p0-----------0-----1p0-----------0-----1p0--------|
G|------0----------0--------0----------0--------0----------0--------0----------0--|
D|---------2p0-----------------2p0-----------------2p0-----------------2p0--------|
A|--------------------------------------------------------------------------------|
E|3-------------------3-------------------3-------------------3-------------------|

e|--------------------------------------------------------------------------------|
B|---1-----1p0-----------1-----1p0-----------1-----1p0-----------1-----1p0--------|
G|------0----------0--------0----------0--------0----------0--------0----------0--|
D|---------2p0-----------------2p0-----------------2p0-----------------2p0--------|
A|3-------------------3-------------------3-------------------3-------------------|
E|--------------------------------------------------------------------------------|

e|--------------------------------------------------------------------------------|
B|---3-----3p0-----------3-----3p0-----------1-----1p0-----------1-----1p0--------|
G|------0----------0--------0----------0--------0----------0--------0----------0--|
D|---------4p0-----------------4p0-----------------2p0-----------------2p0--------|
A|5-------------------5-------------------3-------------------3-------------------|
E|--------------------------------------------------------------------------------|

e|--------------------------------------------------------------------------------|
B|---0-----1p0-----------0-----1p0-----------0-----1p0-----------0-----1p0--------|
G|------0----------0--------0----------0--------0----------0--------0----------0--|
D|---------2p0-----------------2p0-----------------2p0-----------------2p0--------|
A|--------------------------------------------------------------------------------|
E|3-------------------3-------------------3-------------------3-------------------|


[Verse 1]

e|-------------------------------------------------------------------------|
B|---0--------0--------0--------0---------0--------0--------0--------0-----|
G|------0--------0--------0--------0---------0--------0--------0--------0--|
D|---------0-----------------0------------------0-----------------0--------|
A|-------------------------------------------------------------------------|
E|3-----------------3------------------3-----------------3-----------------|


e|-------------------------------------------------------------------------|
B|---1--------1--------1--------1--------1--------1--------1--------1------|
G|------0--------0--------0--------0--------0--------0--------0--------0---|
D|---------2-----------------2-----------------2-----------------2---------|
A|3-----------------3-----------------3-----------------3------------------|
E|-------------------------------------------------------------------------|

e|-------------------------------------------------------------------------|
B|---3--------3--------3--------3--------1--------1--------1--------1------|
G|------0--------0--------0--------0--------0--------0--------0--------0---|
D|---------4-----------------4-----------------2-----------------2---------|
A|5-----------------5-----------------3-----------------3------------------|
E|-------------------------------------------------------------------------|

e|--------------------------------------------------------------------------------|
B|---0-----1p0-----------0-----1p0-----------0-----1p0-----------0-----1p0--------|
G|------0----------0--------0----------0--------0----------0--------0----------0--|
D|---------2p0-----------------2p0-----------------2p0-----------------2p0--------|
A|--------------------------------------------------------------------------------|
E|3-------------------3-------------------3-------------------3-------------------|

Play twice


[Chorus 1]

e|-------------------------------------------------------------------------|
B|---3--------3--------3--------3--------1--------1--------1--------1------|
G|------0--------0--------0--------0--------0--------0--------0--------0---|
D|---------4-----------------4-----------------2-----------------2---------|
A|5-----------------5-----------------3-----------------3------------------|
E|-------------------------------------------------------------------------|

e|--------------------------------------------------------------------------------|
B|---0-----1p0-----------0-----1p0-----------0-----1p0-----------0-----1p0--------|
G|------0----------0--------0----------0--------0----------0--------0----------0--|
D|---------2p0-----------------2p0-----------------2p0-----------------2p0--------|
A|--------------------------------------------------------------------------------|
E|3-------------------3-------------------3-------------------3-------------------|

e|-------------------------------------------------------------------------|
B|---3--------3--------3--------3--------1--------1--------1--------1------|
G|------0--------0--------0--------0--------0--------0--------0--------0---|
D|---------4-----------------4-----------------2-----------------2---------|
A|5-----------------5-----------------3-----------------3------------------|
E|-------------------------------------------------------------------------|

e|--------------------------------------------------------------------------------|
B|---0-----1p0-----------0-----1p0-----------0-----1p0-----------0-----1p0--------|
G|------0----------0--------0----------0--------0----------0--------0----------0--|
D|---------2p0-----------------2p0-----------------2p0-----------------2p0--------|
A|--------------------------------------------------------------------------------|
E|3-------------------3-------------------3-------------------3-------------------|


[Interlude]

e|--------------------------------------------------------------------------------|
B|---1-----1p0-----------1-----1p0-----------1-----1p0-----------1-----1p0--------|
G|------0----------0--------0----------0--------0----------0--------0----------0--|
D|---------2p0-----------------2p0-----------------2p0-----------------2p0--------|
A|3-------------------3-------------------3-------------------3-------------------|
E|--------------------------------------------------------------------------------|

e|--------------------------------------------------------------------------------|
B|---3-----3p0-----------3-----3p0-----------1-----1p0-----------1-----1p0--------|
G|------0----------0--------0----------0--------0----------0--------0----------0--|
D|---------4p0-----------------4p0-----------------2p0-----------------2p0--------|
A|5-------------------5-------------------3-------------------3-------------------|
E|--------------------------------------------------------------------------------|

e|--------------------------------------------------------------------------------|
B|---0-----1p0-----------0-----1p0-----------0-----1p0-----------0-----1p0--------|
G|------0----------0--------0----------0--------0----------0--------0----------0--|
D|---------2p0-----------------2p0-----------------2p0-----------------2p0--------|
A|--------------------------------------------------------------------------------|
E|3-------------------3-------------------3-------------------3-------------------|


[Verse 2]

e|-------------------------------------------------------------------------|
B|---0--------0--------0--------0---------0--------0--------0--------0-----|
G|------0--------0--------0--------0---------0--------0--------0--------0--|
D|---------0-----------------0------------------0-----------------0--------|
A|-------------------------------------------------------------------------|
E|3-----------------3------------------3-----------------3-----------------|

e|-------------------------------------------------------------------------|
B|---1--------1--------1--------1--------1--------1--------1--------1------|
G|------0--------0--------0--------0--------0--------0--------0--------0---|
D|---------2-----------------2-----------------2-----------------2---------|
A|3-----------------3-----------------3-----------------3------------------|
E|-------------------------------------------------------------------------|

e|-------------------------------------------------------------------------|
B|---3--------3--------3--------3--------3--------3--------3--------3------|
G|------0--------0--------0--------0--------0--------0--------0--------0---|
D|---------4-----------------4-----------------4-----------------4---------|
A|5-----------------5-----------------5-----------------5------------------|
E|-------------------------------------------------------------------------|

e|-------------------------------------------------------------------------|
B|---0--------0--------0--------0---------0--------0--------0--------0-----|
G|------0--------0--------0--------0---------0--------0--------0--------0--|
D|---------0-----------------0------------------0-----------------0--------|
A|-------------------------------------------------------------------------|
E|3-----------------3------------------3-----------------3-----------------|

Play twice


[Chorus 2]

e|-------------------------------------------------------------------------|
B|---3--------3--------3--------3--------1--------1--------1--------1------|
G|------0--------0--------0--------0--------0--------0--------0--------0---|
D|---------4-----------------4-----------------2-----------------2---------|
A|5-----------------5-----------------3-----------------3------------------|
E|-------------------------------------------------------------------------|

e|--------------------------------------------------------------------------------|
B|---0-----1p0-----------0-----1p0-----------0-----1p0-----------0-----1p0--------|
G|------0----------0--------0----------0--------0----------0--------0----------0--|
D|---------2p0-----------------2p0-----------------2p0-----------------2p0--------|
A|--------------------------------------------------------------------------------|
E|3-------------------3-------------------3-------------------3-------------------|

e|-------------------------------------------------------------------------|
B|---3--------3--------3--------3--------1--------1--------1--------1------|
G|------0--------0--------0--------0--------0--------0--------0--------0---|
D|---------4-----------------4-----------------2-----------------2---------|
A|5-----------------5-----------------3-----------------3------------------|
E|-------------------------------------------------------------------------|

e|--------------------------------------------------------------------------------|
B|---0-----1p0-----------0-----1p0-----------0-----1p0-----------0-----1p0--------|
G|------0----------0--------0----------0--------0----------0--------0----------0--|
D|---------2p0-----------------2p0-----------------2p0-----------------2p0--------|
A|--------------------------------------------------------------------------------|
E|3-------------------3-------------------3-------------------3-------------------|

e|-------------------------------------------------------------------------|
B|---1--------1--------1--------1--------3--------3--------3--------3------|
G|------0--------0--------0--------0--------0--------0--------0--------0---|
D|---------2-----------------2-----------------4-----------------4---------|
A|3-----------------3-----------------5-----------------5------------------|
E|-------------------------------------------------------------------------|

e|-------------------------------------------------------------------------|
B|---0--------0--------0--------0--------0--------0--------0--------0------|
G|------0--------0--------0--------0--------0--------0--------0--------0---|
D|---------2-----------------2-----------------0-----------------0---------|
A|-------------------------------------------------------------------------|
E|0-----------------0-----------------3-----------------3------------------|

e|-------------------------------------------------------------------------|
B|---3--------3--------3--------3--------1--------1--------1--------1------|
G|------0--------0--------0--------0--------0--------0--------0--------0---|
D|---------4-----------------4-----------------2-----------------2---------|
A|5-----------------5-----------------3-----------------3------------------|
E|-------------------------------------------------------------------------|

e|--------------------------------------------------------------------------------|
B|---0-----1p0-----------0-----1p0-----------0-----1p0-----------0-----1p0--------|
G|------0----------0--------0----------0--------0----------0--------0----------0--|
D|---------2p0-----------------2p0-----------------2p0-----------------2p0--------|
A|--------------------------------------------------------------------------------|
E|3-------------------3-------------------3-------------------3-------------------|

e|-------------------------------------------------------------------------|
B|---3--------3--------3--------3--------1--------1--------1--------1------|
G|------0--------0--------0--------0--------0--------0--------0--------0---|
D|---------4-----------------4-----------------2-----------------2---------|
A|5-----------------5-----------------3-----------------3------------------|
E|-------------------------------------------------------------------------|

e|--------------------------------------------------------------------------------|
B|---0-----1p0-----------0-----1p0-----------0-----1p0-----------0-----1p0--------|
G|------0----------0--------0----------0--------0----------0--------0----------0--|
D|---------2p0-----------------2p0-----------------2p0-----------------2p0--------|
A|--------------------------------------------------------------------------------|
E|3-------------------3-------------------3-------------------3-------------------|

e|-------------------------------------------------------------------------|
B|---1--------1--------1--------1--------3--------3--------3--------3------|
G|------0--------0--------0--------0--------0--------0--------0--------0---|
D|---------2-----------------2-----------------4-----------------4---------|
A|3-----------------3-----------------5-----------------5------------------|
E|-------------------------------------------------------------------------|

e|--------------------------------------------------------------------------------|
B|---0-----1p0-----------0-----1p0-----------0-----1p0-----------0-----1p0--------|
G|------0----------0--------0----------0--------0----------0--------0----------0--|
D|---------2p0-----------------2p0-----------------2p0-----------------2p0--------|
A|--------------------------------------------------------------------------------|
E|3-------------------3-------------------3-------------------3-------------------|


[Outro]

e|--------------------------------------------------------------------------------|
B|---1-----1p0-----------1-----1p0-----------1-----1p0-----------1-----1p0--------|
G|------0----------0--------0----------0--------0----------0--------0----------0--|
D|---------2p0-----------------2p0-----------------2p0-----------------2p0--------|
A|3-------------------3-------------------3-------------------3-------------------|
E|--------------------------------------------------------------------------------|

e|--------------------------------------------------------------------------------|
B|---3-----3p0-----------3-----3p0-----------1-----1p0-----------1-----1p0--------|
G|------0----------0--------0----------0--------0----------0--------0----------0--|
D|---------4p0-----------------4p0-----------------2p0-----------------2p0--------|
A|5-------------------5-------------------3-------------------3-------------------|
E|--------------------------------------------------------------------------------|

e|-------------------------------------------------------------------------------------|
B|---0-----1p0-----------0-----1p0-----------0-----1p0-----------0-----1p0-------------|
G|------0----------0--------0----------0--------0----------0--------0----------0-----0-|
D|---------2p0-----------------2p0-----------------2p0-----------------2p0-----------0-|
A|-------------------------------------------------------------------------------------|
E|3-------------------3-------------------3-------------------3----------------------3-|
            
Submit corrections



        Boy Who Cried Wolf  lessons Hard to play? Try these video lessons and learn fast Boy Who Cried Wolf  lessons
        
↑ Back to top | Tablatures and chords for acoustic guitar and electric guitar, ukulele, drums are parodies/interpretations of the original songs. You may use it for private study, scholarship, research or language learning purposes only