» » »

Passenger - Beautiful Birds Tabs

Artists:  A B C D E F G H I J K L M N O P Q R S T U V W X Y Z # 

Beautiful Birds Tabs

(ver. 1) Click to play this song!
Passenger
 Rating:
4.3/5 (10 votes)


 Beautiful Birds  lessons Tabs too difficult? Try these video lessons and learn fast
 
                Intro]

e|-3-2---0-------------------------3-2--0-------------3-2----|
B|-----3-------3-----------------------3------3-----3--------|
G|-0---------0---2---2-2-4-----2-0----------0---2-0----------|
D|-----------------0---------0-------------------------------|
A|---------3------------------------------3------------------|
E|-0-----------------------3---------------------------------|

e|-3-2---0---------------------------------------------------|
B|-----3-------3-------------------------------0-3---1-1p0---|
G|-0---------0---2---2-2-4-----2-0-------0---0-----0---------|
D|-----------------0---------0-------0h2---2-----------------|
A|---------3-----------------------3-------------------------|
E|-0-----------------------3---------------------------------|


[Verse 1]
(you remember when we were...)

   Em      C       C*      G       Em      C       C*     
e|-----------------------------------------------------------|
B|-----0-------1-------3-------0-------0-------1-------3---3-|
G|---0---0---0---0---0---0---0---0---0---0---0---0---0---0---|
D|-----------------------------------------------------------|
A|-2-------3-------5-------3-------2-------3-------5---------|
E|-----------------------------------------------------------|

   Em      C       C*      G               D
e|-----------------------------------------------3-2---------|
B|-----0-------1-------3-------0---1-1-1-0-----3-------------|
G|---0---0---0---0---0---0---0---0-----------2---------------|
D|-----------------------------------------0-----------------|
A|-2-------3-------5-------3---------------------------------|
E|-----------------------------------------------------------|


[Verse 2] 
(you said you loved...)

e|-3-2---0-------------------------3-2--0-------------3-2----|
B|-----3-------3-----------------------3------3-----3--------|
G|-0---------0---2---2-2-4-----2-0----------0---2-0----------|
D|-----------------0---------0-------------------------------|
A|---------3------------------------------3------------------|
E|-0-----------------------3---------------------------------|

e|-3-2---0---------------------------------------------------|
B|-----3-------3-------------------------------0-3---1-1p0---|
G|-0---------0---2---2-2-4-----2-0-------0---0-----0---------|
D|-----------------0---------0-------0h2---2-----------------|
A|---------3-----------------------3-------------------------|
E|-0-----------------------3---------------------------------|


[Bridge]

e|-3-2---0-------------------------3-2--0-------------3-2----|
B|-----3-------3-----------------------3------3-----3--------|
G|-0---------0---2---2-2-4-----2-0----------0---2-0----------|
D|-----------------0---------0-------------------------------|
A|---------3------------------------------3------------------|
E|-0-----------------------3---------------------------------|

e|-7-5-3-0---3-2-----------0---------------------------------|
B|-----------------3-0---3-----3---0-0--0h1-0----------------|
G|-0-----------------------------2---------------------------|
D|-----------------------------------------------------------|
A|-----------------------------------------------------------|
E|-0---------------------------------------------------------|


[Verse 3] 
(remember when we were...)

   Em      C       C*      G       Em      C       D      
e|-------------------------------------------------------3-2-|
B|-----0-------1-------3-------0-------0-------1-------3-----|
G|---0---0---0---0---0---0---0---0---0---0---0---0---2-------|
D|-------------------------------------------------0---------|
A|-2-------3-------5-------3-------2-------3-----------------|
E|-----------------------------------------------------------|

   Em      C       C*      G               D  
e|-------------------------------------------------3-2-------|
B|-----0-------1-------3-------0---1-1-1-0-----0h3-----------|
G|---0---0---0---0---0---0---0---0-----------2---------------|
D|-----------------------------------------0-----------------|
A|-2-------3-------5-------3---------------------------------|
E|-----------------------------------------------------------|


[Verse 4] 
(but one day you asked...)

e|-3-3-3-3-2-2h3---------------------2-2-3-2-2---------------|
B|---------------3-3-----0-------1p0-------------------------|
G|---------------------0---0---0-----------------------------|
D|-----------------------------------------------------------|
A|-------------------2-------3-------------------------------|
E|-----------------------------------------------------------|

e|-3-2---0-----------------------------------------3-2-------|
B|-----3-------3-----------------0-1-1-1p0-----0h3-----------|
G|-----------0---2---2-2-4-----2-------------2---------------|
D|-----------------0---------0-------------0-----------------|
A|---------3-------------------------------------------------|
E|-------------------------3---------------------------------|


[Verse 5] 
(to build a nest...)

e|-----------------------------------------3-2----0----------|
B|-1---1--1---1--0-0-0---0-0-0h1-0-----0h3------3------------|
G|---2------2----------2-------------2-----------------------|
D|---------------------------------0-------------------------|
A|-----------------------------------------------------------|
E|-----------------------------------------------------------|


e|---------------------------3-2-----------------------------|
B|-0-0-0---0-0-0h1-0-----0h3---------------------------------|
G|-------2-------------2-------------------------------------|
D|-------------------0---------------------------------------|
A|-----------------------------------------------------------|
E|-----------------------------------------------------------|


[Outro]

e|-7---7---7-5-3---3---0-3-2---3-2----x----------------------|
B|------------------------------------x----------------------|
G|-0-0-0-0-------0---0-----0-0-----0--x----------------------|
D|------------------------------------x----------------------|
A|------------------------------------x----------------------|
E|-0----------------------------------x----------------------|

e|-3-2---0-------------------------------------------------3-|
B|-----3-------3------------------------------------------0--|
G|-0---------0---2---2-2-4-----2-0-------0-------0-1-----0---|
D|-----------------0---------0-------0h2---2---0--------0----|
A|---------3-----------------------3---------3---------------|
E|-0-----------------------3---------------------------------|            
Submit corrections



        Beautiful Birds  lessons Hard to play? Try these video lessons and learn fast Beautiful Birds  lessons
        
↑ Back to top | Tablatures and chords for acoustic guitar and electric guitar, ukulele, drums are parodies/interpretations of the original songs. You may use it for private study, scholarship, research or language learning purposes only