Home » P » Parry Gripp »

Parry Gripp - The Girl At The Video Game Store Ukulele

Artists:  A B C D E F G H I J K L M N O P Q R S T U V W X Y Z # 

The Girl At The Video Game Store Ukulele

(ver. 1) Click to play this song!
Parry Gripp
------------------------------------------------------------------------------
			     Video Game Girl - Parry Gripp
-------------------------------------------------------------------------------

Tuning:Standard

This my first tab. I just heard this song from Parry Gripp. 
It was on G4TV this week. Its a wicked song, hope you like it!



Intro

e|---------------------------------------------------------------------------|
B|-----------------------------0-------------------------0-------------------|
G|--------0---------0--------0-----------0------0------0---------------------|
D|------0---------0--------0-----------0------0------0-----------------------|
A|---------------------------------------------------------------------------|
E|---3---------2-------0-----------3--------2------0-------------------------|

First Verse (Chords finger picking) 

 
	         G	            D	         Em	          Bm	      C   	  	  
e|------------------2---------------------------------------------------------
B|------3---------3--3-----------0--------------3--------------1-------------|
G|-----0-0------2------2-------0---0----------4---4----------0---0-----------|
D|----0---0---0--------------2-------2------4-------3------2-------2---------|
A|----------------------------------------2--------------3-------------------|
E|--3---------------------0--------------------------------------------------|

	       G	 		                     D
e|----------------3--------------2-------------------------------------------|
B|-------3--------3------------3---3-----------------------------------------|
G|------0-0------0-0----------2------2---------------------------------------| 
D|-----0---0----0---0--------------------------------------------------------|	    
A|---------------------------------------------------------------------------|
E|--3---------3--------------------------------------------------------------|
X2 (Second time do two D chords instead of G)

(power chord `intro`)

e|---------------------------------------------------------------------------|
B|---------------------------------------------------------------------------|
G|---------------------------------------------------------------------------|
D|---------------------------------------------------------------------------|
A|---5--5--2---2-2--5--5--2--2-2-2-------------------------------------------|
E|---3--2--0---0-0--3--2--0--0-0-0-------------------------------------------|


Verse two (Same chords as verse one but power chords)

e|---------------------------------------------------------------------------|
B|---------------------------------------------------------------------------|
G|---------------------------------------------------------------------------|
D|------------77777------------44444---55555-----------------77777-----------|  
A|----55555---55555---22222----22222---33333---55555-55555---55555-----------|    
E|----33333-----------00000--------------------33333-33333-------------------|

X2 (2nd time do two D power chords again instead of G)

e|---------------------------------------------------------------------------|
B|---------------------------------------------------------------------------|
G|---------------------------------------------------------------------------|
D|---------------------------------------------------------------------------|
A|----55555555555------------------------------------------------------------|
E|----33333333333------------------------------------------------------------|

Chorus
            C 	      G	      E         D
e|---------------------------------------------------------------------------|
B|---------------------------------------------------------------------------|
G|---------------------------------------------------------------------------|
D|------55555-------------99999----77777-------------------------------------| 
A|------33333----55555----77777----55555-------------------------------------|
E|---------------33333-------------------------------------------------------|

X4

8bit solo 

Chorus ( but last time through keep strumming the D power chord and end with a G
 into the next instrumental part)

This part with Olivia Munn talking is just the first verse finger picking part and ends 
with the power chord verse once through palm muted.

The last `girl at the video game store`part is the power chord verse and ends with the
power chord `Intro`.




| /  slide up
| \  slide down
| h  hammer-on
| p  pull-off
| ~  vibrato
| +  harmonic
| x  Mute note
===============================================================================
            
Submit corrections

↑ Back to top | Tablatures and chords for acoustic guitar and electric guitar, ukulele, drums are parodies/interpretations of the original songs. You may use it for private study, scholarship, research or language learning purposes only