» » »

Parokya Ni Edgar - Pangarap Lang Kita Bass

Artists:  A B C D E F G H I J K L M N O P Q R S T U V W X Y Z # 

Pangarap Lang Kita Bass

(ver. 1) Click to play this song!
Parokya Ni Edgar
 Rating:
4/5 (4 votes)


 Pangarap Lang Kita lessons Tabs too difficult? Try these video lessons and learn fast
 
                Pangarap lang kita

ayan na...wala balak ung iba magpasa, ako na nauna...ung may tanong email lang
suggest nalang kung may dapat iayos...hi kay ms.rocelyn modelo pabati lang, :DD


intro:
G|-----------------|
D|-----------------| 2X
A|--4--6---8-------|
E|-----------------|

G|-----------------------------|
D|--------6-5-3----------------|
A|--4--6---------6-4-6---------|
E|----------------------4------|

verse 1 chito part
G|-----------------|
D|-----------------| 3X
A|--4--6---8-------|
E|-----------------|


G|-------------------|
D|-------------------|
A|--4------11-10-----|
E|-----11---------4--|

G|-----------------|
D|-----------------| 2x
A|--4--6---8-------|
E|-----------------|

G|-----------------|
D|--------6-5-3----|
A|--4--6---------6-|
E|-----------------|

G|-----------------|
D|--------6--5-----|
A|--4--6-----------|
E|--------------4--|


pre-chorus:
G|--------------------|
D|----------------6---|
A|--4--6---8--8-8---6-|
E|--------------------|

G|-----------------|----------------|----------|
D|--------6-5-3----|-------6-5------|----------|
A|--4--6--------6--|--4--6----------|----------|
E|-----------------|------------4---|---6------|

interlude:
G|-----------------|
D|-----------------|
A|--6---8---10-----|
E|-----------------|

G|-------------------8----------------|
D|-------------8h10----h12--10---8----|
A|--6---8-----------------------------|
E|----------6-------------------------|


verse 2: happee sy part
G|-----------------|
D|-----------------| 3x
A|--6---8---10-----|
E|-----------------|

G|--------------------|
D|----------8-7-------|
A|--6---8-------------|
E|----------------6---|

G|-----------------|
D|-----------------| 2x
A|--6---8---10-----|
E|-----------------|

G|--------------------|
D|---------8-7-5------|
A|--6---8---------8---|
E|--------------------|

G|-------------------|
D|---------8-7-------|
A|--6---8------------|
E|--------------6----|

chorus:
G|-----------------------------|
D|---------------------8-------| 2x
A|--6---8---10---10-10----8----|
E|-----------------------------|

G|------------------------------|
D|----------8-7-5-------8-7-----|
A|--6---8---------8-6-8---------|
E|---------------------------6--|

interlude:
G|-----------------|------------------------|
D|-----------------|------------------------|
A|--6---8---10-----|--6--8------------------|
E|-----------------|-------3ssssssss17------|

chorus: chito and happee sy
G|----------------------|
D|-----------------7----| 2x
A|--5---7---9--9-9---7--|
E|----------------------|


G|----------------------|
D|----------7-6-4-------|
A|--5---7----------7----|
E|----------------------|

G|----------------------|
D|----------7-6---------|
A|--5---7---------------|
E|----------------5-----|


happee sy part Chinese
G|----------------------|
D|----------------------| 2x
A|--5---7----9----------|
E|----------------------|

G|----------------------|
D|----------7-6-4-------|
A|--5---7----------7----|
E|----------------------|

G|----------------------|
D|----------7-6---------|
A|--5---7---------------|
E|---------------5------|


chorus: chito and happee sy
G|----------------------|
D|-----------------7----| 2x
A|--5---7---9--9-9---7--|
E|----------------------|


G|----------------------|
D|----------7-6-4-------|
A|--5---7----------7----|
E|----------------------|

G|----------------------|
D|----------7-6---------|
A|--5---7---------------|
E|----------------5-----|



last part: pangarap lang kita....2x
G|----------------------|
D|----------------------|
A|--5---7----9-9--------|
E|---------------2h4-2--|


G|----------------------|
D|-----------7-6--------|
A|--5---7---------------|
E|----------------5-----|



un lang...


pne rocks!!!
            
Submit corrections



        Pangarap Lang Kita lessons Hard to play? Try these video lessons and learn fast Pangarap Lang Kita lessons
        
↑ Back to top | Tablatures and chords for acoustic guitar and electric guitar, ukulele, drums are parodies/interpretations of the original songs. You may use it for private study, scholarship, research or language learning purposes only