» » »

Parkway Drive - Cruise Tabs

Artists:  A B C D E F G H I J K L M N O P Q R S T U V W X Y Z # 

Cruise Tabs

(ver. 2) Click to play this song!
Parkway Drive
 Rating:
4/5 (8 votes)


 Cruise lessons Tabs too difficult? Try these video lessons and learn fast
 
                This song has a number of guitar parts, what i have tabbed is a simplified verson which 
you to play most of the song. you can play the thing in almost normal tuning, in drop d 
piece of p**s...cunts

e--------------------------------------------------------------------------|
B--------------------------------------------------------------------------|
G--------------------------------------------------------------------------|
D-------4---------4--------------4--------5-4------------------------------|
A----2--------4-------4-------0--------2-------5---------------------------|
D-2-------4---------------0--------2---------------------------------------|

e-------------------------------------------------------------------------|
B-------------------------------------------------------------------------|
G-------------------------------------------------------------------------|
D-------4---------4--------------4-4-2-2----------------------------------|
A----2--------4-------4-------0----------4--------------------------------|
D-2-------4---------------0-----------------------------------------------|

play twice

e--------------------------------------------------------------------------|
B--------------------------------------------------------------------------|
G----------------4-4/7-6------------------4-2------------------------------|
D-------4-----------------------4-------------4----------------------------|
A----2--------4--------------0--------2------------------------------------|
D-2-------4---------------0--------2---------------------------------------|


e--------------------------------------------------------------------------|
B--------------------------------------------------------------------------|
G--------------------------------------------------------------------------|
D-------4---------6-7-6-----------7-7-6-6----------------------------------|
A----2--------4---------------0-----------7--------------------------------|
D-2-------4---------------0------------------------------------------------|

play twice


e-------------------------------------------------------------------------|
B-------------------------------------------------------------------------|
G-----------------4-4/7-6------------------5-4----------------------------|
D-------4------------------------4-------------5--------------------------|
A----2---------4--------------0--------2----------------------------------|
D-2--------4---------------0--------2-------------------------------------|

e-------------------------------------------------------------------------|
B-------------------------------------------------------------------------|
G-----------------4-4/7-6----------4-4/7-6--------------------------------|
D-------4------------------------------------7----------------------------|
A----2---------4--------------0-------------------------------------------|
D-2--------4---------------0----------------------------------------------|

play twice


e--------------------------------------------------------------------------|
B--------------------------------------------------------------------------|
G--------------4-2-0h2---------------2-------------------------------------|
D-------2-4-5------------------0-2-4-----5-4h5-----------------------------|
A----2----------------------0----------------------------------------------|
D-2---------------------0--------------------------------------------------|

repeat for a few bars...

after that it goes pretty crazy with a lot of guitar parts

then back to that initial riff

thats about as good as i can get it.

cheers
            
Submit corrections



        Cruise lessons Hard to play? Try these video lessons and learn fast Cruise lessons
        
↑ Back to top | Tablatures and chords for acoustic guitar and electric guitar, ukulele, drums are parodies/interpretations of the original songs. You may use it for private study, scholarship, research or language learning purposes only