» » »

Papa Roach - Legacy Bass

Artists:  A B C D E F G H I J K L M N O P Q R S T U V W X Y Z # 

Legacy Bass

(ver. 1) Click to play this song!
Papa Roach
 Rating:
4/5 (4 votes)


 Legacy lessons Tabs too difficult? Try these video lessons and learn fast
 
                Drop D tuning

Intro
G|--------------------------------------------|
D|--------------------------------------------|
A|--------------------------------------------|
D|--0-0--0-0--0-0--0--0---0-0--0-0--0-0--0--0-|


Verse
G|---------------------------------------------|
D|---------------------------------------------|
A|---------------------------------------------|
D|-7-7-10p7---7-7-8p7---7-7-10p7---7-7-8p7-8p7-|


Pre-chorus
G|---------------------------------------------------|
D|---------------------------------------------------|
A|---------------------------------------------------|
D|-8888888888888888-10101010101010101010101010101010-|
(10, not 1-0)


Chorus
G|--------------------------------------------------------------|
D|--------------------------------------------------------------|
A|-5-----7-----88888888----------7777/3333--5-----7-----88888888|
D|--0-0-0-0-0-0---------33333333-------------0-0-0-0-0-0--------|

Chorus (cont)
G|-------------------|
D|-------------------|
A|---------8888/3333-|
D|-88888888----------|


Break
G|---------------------------------------------|
D|---------------------------------------------|
A|---------------------------------------------|
D|-7-7-10p7---7-7-8p7---7-7-10p7---7-7-8p7-8p7-|


Outro pt. 1
G|---------------------|
D|---------------------|
A|---------------------|
D|--0-0--0-0--0-0--0-0-|

After first time through part 1, chorus, part 1, then part 2


Outro pt.  2
G|--------------------------------------|
D|--------------------------------------|
A|------------555555555555--------------|
D|--0-0--0-0----------------0----0----0-|

Shouldn't be too hard to figure out the song order, enjoy it! 
            
Submit corrections



        Legacy lessons Hard to play? Try these video lessons and learn fast Legacy lessons
        
↑ Back to top | Tablatures and chords for acoustic guitar and electric guitar, ukulele, drums are parodies/interpretations of the original songs. You may use it for private study, scholarship, research or language learning purposes only