» » »

Pantera - Shreding Skin Bass

Artists:  A B C D E F G H I J K L M N O P Q R S T U V W X Y Z # 

Shreding Skin Bass

(ver. 1) Click to play this song!
Pantera
 Rating:
4/5 (4 votes)
                repeat 3 times
g-----------------------------
d-----------2-2---------------
a-------2-3-----3-2-----------
e-0-0-3-------------3-0-0-----
then
g-------------------------------------
d-------------------------------------
a-2-2---1-1---1-1---1-1---------------
e-----3-----3-----2-----1-------------
i think its right
            
Submit corrections

↑ Back to top | Tablatures and chords for acoustic guitar and electric guitar, ukulele, drums are parodies/interpretations of the original songs. You may use it for private study, scholarship, research or language learning purposes only