» » »

Pantera - Shattered Bass

Artists:  A B C D E F G H I J K L M N O P Q R S T U V W X Y Z # 

Shattered Bass

(ver. 1) Click to play this song!
Pantera
 Rating:
4/5 (4 votes)


 Shattered lessons Tabs too difficult? Try these video lessons and learn fast
 
                                              SHATTERED (Bassline)
                             As recorded by Pantera
                     (From the 1992 Album COWBOYS FROM HELL)

Words and Music by Pantera

Gtr I (B E A D G) - 'Rex'

   Intro
    Very Fast  Q=220
   2/2
    Gtr I
    |----6----| |----6----|   |----6----| |----6----|
    E E E E E E E E E E E E   E E E E E E E E E E E E  4x
||--------------------------|--------------------------||
||o-------------------------|-------------------------o||
||--4-4-4-4-4-4-4-4-4-4-4-4-|-4-4-4-4-4-4-4-4-4-4-4-4--||
||o-------------------------|-------------------------o||
||--------------------------|--------------------------||


  Accel a bit Q=221
  Q  Q  H      +Q   Q  Q  Q    H    H      E q  q  q  E   E q  E q  Q
|------------|---------------|-----------|--------------|--------------||
|------------|---------------|-----------|--------------|--------------||
|------------|---------------|-----------|--------------|--------------||
|-0-----0----|-(0)-----0-----|-0---------|-0-0--0--0--0-|---0--0-1--1--||
|----3-------|------------3--|-----------|--------------|--------------||


    Faster Q=238
   4/4
    E E E E E E E E   E E E E E E E E   E E E q  q  E   E q  E H     3x
||------------------|-----------------|---------------|--------------||
||o-----------------|-----------------|---------------|-------------o||
||------------------|-----------------|-------0--2--3-|---2--0-------||
||o-2-2-2-2-2-2-2-2-|-2-2-2-2-2-2-2-2-|-0-1-2---------|--------2----o||
||------------------|-----------------|---------------|--------------||


  Faster Q=242
  E E E E E E E E   E E E E E E E E   E E E q  q  E   E q  E H
|-----------------|-----------------|---------------|-------------||
|-----------------|-----------------|---------------|-------------||
|-----------------|-----------------|-------0--2--3-|---2--0------||
|-2-2-2-2-2-2-2-2-|-2-2-2-2-2-2-2-2-|-0-1-2---------|--------2----||
|-----------------|-----------------|---------------|-------------||


   1st Verse
    E E E E E E E E   E E E E E E E E     E E E E E E E E   E E E E E E E E
||------------------|------------------||-----------------|-----------------|
||o-----------------|-----------------o||-----------------|-----------------|
||--4-4-4-4-4-4-4-4-|-4-4-4-4-4-4-4-4--||-2s4-4-4-4-4-4-4-|-4-4-4-4-4-4-4-4-|
||o-----------------|-----------------o||-----------------|-----------------|
||------------------|------------------||-----------------|-----------------|


                                    Slow a bit Q=238
  E E E E E E E E   E E E E E E E E   W          W
|-----------------|-----------------|----------|------|
|-----------------|-----------------|----------|------|
|-4-4-4-4-4-4-4-4-|-4-4-4-4-4-4-4-4-|----------|-5----|
|-----------------|-----------------|-0--------|------|
|-----------------|-----------------|----------|------|


    E E E E E E E E   E E E E E E E E     W          W
||------------------|------------------||----------|------|
||o-----------------|-----------------o||----------|------|
||--4-4-4-4-4-4-4-4-|-4-4-4-4-4-4-4-4--||----------|-5----|
||o-----------------|-----------------o||-0--------|------|
||------------------|------------------||----------|------|


                              Chorus
  Slower Q=230             Accel Q=236
                           $
  Q  Q  Q  Q    q  H.          E E E E E E E E   E E E E E E E E
|-------------|------------||------------------|------------------|
|-------------|------------||o-----------------|------------------|
|-2--2--2--2--|-2----------||------------------|------------------|
|-------------|------------||o-4-4-4-4-4-4-4-4-|-4-4-4-4-4-4-4-4--|
|-------------|------------||------------------|------------------|


                                  Accel Q=241
                    To Coda
  E E E q  q  E   E q  E H            E E E E E E E E   E E E E E E E E
|---------------|--------------||-||------------------|------------------|
|---------------|-------------o||-||o-----------------|------------------|
|-------2--4--5-|---4--2-------||-||------------------|------------------|
|-2-3-4---------|--------4----o||-||o-2-2-2-2-2-2-2-2-|-2-2-2-2-2-2-2-2--|
|---------------|--------------||-||------------------|------------------|


  1.                             2.
  E E E q  q  E   E q  E H        E q  H    E   W
|---------------|--------------||-------------|------||
|---------------|-------------o||-------------|------||
|-------0--2--3-|---2--0-------||-------------|------||
|-0-1-2---------|--------2----o||-0-2---------|------||
|---------------|--------------||-------------|------||


   2nd Verse
    E E E E E E E E   E E E E E E E E     E E E E E E E E   E E E E E E E E
||------------------|------------------||-----------------|-----------------|
||o-----------------|-----------------o||-----------------|-----------------|
||--4-4-4-4-4-4-4-4-|-4-4-4-4-4-4-4-4--||-2s4-4-4-4-4-4-4-|-4-4-4-4-4-4-4-4-|
||o-----------------|-----------------o||-----------------|-----------------|
||------------------|------------------||-----------------|-----------------|


  E E E E E E E E   E E E E E E E E   W          W
|-----------------|-----------------|----------|------|
|-----------------|-----------------|----------|------|
|-4-4-4-4-4-4-4-4-|-4-4-4-4-4-4-4-4-|----------|-5----|
|-----------------|-----------------|-0--------|------|
|-----------------|-----------------|----------|------|


    E E E E E E E E   E E E E E E E E     W
||------------------|------------------||------|
||o-----------------|-----------------o||------|
||--4-4-4-4-4-4-4-4-|-4-4-4-4-4-4-4-4--||------|
||o-----------------|-----------------o||-0----|
||------------------|------------------||------|


                     D.S. al Coda
  W          Q  Q  Q  Q    q  H.
|----------|-------------|-----------||
|----------|-------------|-----------||
|-5--------|-2--2--2--2--|-2---------||
|----------|-------------|-----------||
|----------|-------------|-----------||


                                       1.
    &
    E E E E E E E E   E E E E E E E E   E E E q  q  E   E q  E H
||------------------|-----------------|---------------|--------------||
||o-----------------|-----------------|---------------|-------------o||
||------------------|-----------------|-------0--2--3-|---2--0-------||
||o-2-2-2-2-2-2-2-2-|-2-2-2-2-2-2-2-2-|-0-1-2---------|--------2----o||
||------------------|-----------------|---------------|--------------||


                              Bridge
  2.Q=248
  E H..         q  H    E E    +W           +H     E E E E
|-------------|-------------||------------|----------------|
|-------------|-------------||------------|----------------|
|-------------|-----------3-||-(3)--------|-(3)----3-2-0---|
|-0-2---------|-2-----------||------------|--------------2-|
|-------------|-------------||------------|----------------|


  H    H      H..       E   +W           +H     E E E E
|-----------|-------------|------------|----------------|
|-----------|-------------|------------|----------------|
|-----------|-----------3-|-(3)--------|-(3)----3-2-0---|
|-2---------|-------------|------------|--------------2-|
|-----------|-------------|------------|----------------|


  +E  E E Q  E E E   +E  E E Q  E E E   +W           +H     E E E E
|------------------|------------------|------------|----------------|
|------------------|------------------|------------|----------------|
|------------------|----------------3-|-(3)--------|-(3)----3-2-0---|
|-(2)-0-1-2--0-1-2-|-(2)-0-1-2--2-2---|------------|--------------2-|
|------------------|------------------|------------|----------------|


                                                  |-3-|
  +W           Q  Q  Q  E E   +W           +H     E E E q
|------------|--------------|------------|-----------------|
|------------|--------------|------------|-----------------|
|------------|------------3-|-(3)--------|-(3)----2h3p2-0--|
|-(2)--------|----2--2--2---|------------|-----------------|
|------------|--------------|------------|-----------------|


                                     Guitar Solo
  Q  E E E E E E   E E E E E E Q      E E E E E E E E   E E E E E E E E
|----------------|----------------||------------------|-----------------|
|----------------|----------------||o-----------------|-----------------|
|----2-2---3-3---|-4-4---5-5---6--||--4-4-4-4-4-4-4-4-|-4-4-4-4-4-4-4-4-|
|--------3-----4-|-----5-----6----||o-----------------|-----------------|
|----------------|----------------||------------------|-----------------|


                   1.                2Slow a bit Q=243
  E E E E E E E E   E E E Q  E Q      Q.   Q.   Q      E E E E E E E E
|-----------------|----------------||--------------||------------------|
|-----------------|---------------o||--------------||o-----------------|
|-4-4-4-4-4-4-4-4-|-4-4-4------2---||-2----3----4--||--6-6-6-6-6-6-6-6-|
|-----------------|-------2--2----o||--------------||o-----------------|
|-----------------|----------------||--------------||------------------|


                                     1.                  2.
  E E E E E E E E   E E E E E E E E   E E E E E E E E     Q.   Q.   Q
|-----------------|-----------------|------------------||--------------|
|-----------------|-----------------|-----------------o||--------------|
|-6-6-6-6-6-6-6-6-|-6-6-6-6-6-6-6-6-|-6-6-6-6-----4h6--||-9----8----7--|
|-----------------|-----------------|---------4h6-----o||--------------|
|-----------------|-----------------|------------------||--------------|


                                                         1.
    E E E E E E E E   E E E E E E E E   E E E E E E E E   E E E E E E E E
||------------------|-----------------|-----------------|------------------||
||o-----------------|-----------------|-----------------|-----------------o||
||--4-4-4-4-4-4-4-4-|-4-4-4-4-4-4-4-4-|-4-4-4-4-4-4-4-4-|-4-4-4-4-----2h4--||
||o-----------------|-----------------|-----------------|---------2h4-----o||
||------------------|-----------------|-----------------|------------------||


                  Interlude
  2.           Tempo I Q=220
                  2/2
                   |----6----| |----6----|   |----6----| |----6----|
  Q.   Q.   Q      E E E E E E E E E E E E   E E E E E E E E E E E E  4x
|--------------||--------------------------|--------------------------||
|-4----3----2--||o-------------------------|-------------------------o||
|--------------||--6-6-6-6-6-6-6-6-6-6-6-6-|-6-6-6-6-6-6-6-6-6-6-6-6--||
|--------------||o-------------------------|-------------------------o||
|--------------||--------------------------|--------------------------||


  Q  Q  H      +Q   Q  Q  Q    q  H.        E q  q  q  E   E q  E q  Q
|------------|---------------|------------|--------------|----------------||
|------------|---------------|------------|--------------|----------------||
|------------|---------------|------------|--------------|----------------||
|-2-----2----|-(2)-----2-----|-2----------|-2-2--2--2--2-|---2--2-3--3----||
|----5-------|------------5--|------------|--------------|----------------||


   3rd Chorus
    Faster Q=237
   4/4
    E E E E E E E E   E E E E E E E E   E E E q  q  E   E q  E H
||------------------|-----------------|---------------|--------------||
||o-----------------|-----------------|---------------|-------------o||
||------------------|-----------------|-------2--4--5-|---4--2-------||
||o-4-4-4-4-4-4-4-4-|-4-4-4-4-4-4-4-4-|-2-3-4---------|--------4----o||
||------------------|-----------------|---------------|--------------||


    Faster Q=241                       1.,2.
    E E E E E E E E   E E E E E E E E   E E E q  q  E   E q  E H     3x
||------------------|-----------------|---------------|--------------||
||o-----------------|-----------------|---------------|-------------o||
||------------------|-----------------|-------0--2--3-|---2--0-------||
||o-2-2-2-2-2-2-2-2-|-2-2-2-2-2-2-2-2-|-0-1-2---------|--------2----o||
||------------------|-----------------|---------------|--------------||


  3.
  E E E E E E E E   E E E E E E E E   E E E E E E E E   E E E E E E E E
|-----------------|-----------------|-----------------|-----------------|
|-4-4-4-4-4-4-4-4-|-4-4-4-4-4-4-4-4-|-----------------|-----------------|
|-----------------|-----------------|-----------------|-----------------|
|-----------------|-----------------|-2-2-2-2-2-2-2-2-|-2-2-2-2-2-2-2-2-|
|-----------------|-----------------|-----------------|-----------------|


                                Breakdown
                              Tempo I Q=220
  E E E q  q  E   E q  E H       E E E E E E Q    E E E E E E Q
|---------------|-------------||----------------|-----------------|
|---------------|-------------||-------0---2----|-----------------|
|-------0--2--3-|---2--0------||-0-1-2---2------|-------4---6-----|
|-0-1-2---------|--------2----||----------------|-4-5-6---6-------|
|---------------|-------------||----------------|-----------------|


                                   Slow a bit Q=216
  E E E E E E Q    E E E E E E E E   E E E E q  Q
|----------------|-----------------|---------------||
|----------------|-----------------|---------------||
|-------2---4----|-------1---3---4-|---3---1-------||
|-2-3-4---4------|-1-2-3---3---3---|-3---3---3-----||
|----------------|-----------------|---------------||


 Outro/Solo
  W            +W           +W          6x +Q.   Q.   Q    +Q   H.
|----------||-------------|-------------||---------------|------------*|
|----------||o------------|------------o||---------------|------------*|
|----------||-------------|-------------||---------------|------------*|
|-2--------||o-(2)--------|-(2)--------o||-(2)---2----2--|-(2)--------*|
|----------||-------------|-------------||---------------|------------*|


Duration Legend
---------------
W - whole; H - half; Q - quarter; E - 8th; S - 16th; T - 32nd; X - 64th; a - acciaccatura
+ - note tied to previous; . - note dotted; .. - note double dotted
Uncapitalized letters represent notes that are staccato (1/2 duration)
Irregular groupings are notated above the duration line
Duration letters will always appear directly above the note/fret number it represents the
duration for.  Duration letters with no fret number below them represent rests.  Multi-
bar rests are notated in the form Wxn, where n is the number of bars to rest for.  Low
melody durations appear below the staff

Tablature Legend
----------------
 h   - hammer-on
 p   - pull-off
 b   - bend
 pb  - pre-bend
 r   - bend release (if no number after the r, then release immediately)
 /\  - slide into or out of (from/to "nowhere")
 s   - legato slide
 S   - shift slide
  - natural harmonic
[n]  - artificial harmonic
n(n) - tapped harmonic
 ~   - vibrato
 tr  - trill
 T   - tap
 TP  - trem. picking
 PM  - palm muting
\n/  - tremolo bar dip; n = amount to dip
 \n  - tremolo bar down
 n/  - tremolo bar up
/n\  - tremolo bar inverted dip
 =   - hold bend; also acts as connecting device for hammers/pulls
 <>  - volume swell (louder/softer)
 x   - on rhythm slash represents muted slash
 o   - on rhythm slash represents single note slash

Misc Legend
-----------
 |  - bar
||  - double bar
||o - repeat start
o|| - repeat end
*|  - double bar (ending)
 :  - bar (freetime)
 $  - Segno
 &  - Coda
Tempo markers -  = BPM(8/16=s8/s16), where s8 = swing 8ths, s16 = swing 16ths
            
Submit corrections



        Shattered lessons Hard to play? Try these video lessons and learn fast Shattered lessons
        
↑ Back to top | Tablatures and chords for acoustic guitar and electric guitar, ukulele, drums are parodies/interpretations of the original songs. You may use it for private study, scholarship, research or language learning purposes only