» » »

Pantera - Rise Bass

Artists:  A B C D E F G H I J K L M N O P Q R S T U V W X Y Z # 

Rise Bass

(ver. 1) Click to play this song!
Pantera
 Rating:
4/5 (4 votes)


 Rise lessons Tabs too difficult? Try these video lessons and learn fast
 
                Pantera - Rise

Tuning: Half Step Down (Eb Ab Db Gb)




 Intro/Chorus Riff x4|                x4|                x4|                x2||
Gb|------------------|------------------|------------------|------------------||
Db|------------------|------------------|------------------|------------------||
Ab|------------------|------------------|------------------|------------------||
Eb|-1-1-1-1-1-1-1-1--|-4-4-4-4-4-4-4-4--|-6-6-6-6-6-6-6-6--|-8-8-8-8-8-8-8-8--||


 (continued)
Gb|------------------|------------------|------------------||
Db|------------------|------------------|------------------||
Ab|------------------|------------------|------------------||
Eb|-7-7-7-7-8-8-8-8--|-7-7-7-7-8-8-8-8--|-7----------------||

 Pre-Chorus 
Gb|------------------|------------------|------------------|------------------||
Db|------------------|------------------|------------------|------------------||
Ab|------------------|------------------|------------------|------------------||  repeat x2
Eb|-3-----3--1---1/3-|----3--1---1/3----|----3--1---1/3----|-4----------------||

 Riff 1
Gb|------------------|------------------|------------------|------------------||
Db|------------------|------------------|------------------|------------------||
Ab|------------------|------------------|------------------|------------------||
Eb|-3-3-0----3---3-0-|--3-3-0----3-3-0--|-3---3-0---3-3-0--|-0-0-3----0---0-3-||

 (continued)
Gb|------------------|------------------||
Db|------------------|------------------||
Ab|------------------|------------2-----||
Eb|-0-0-3----3-3-0---|-3-3-0---------1--||

 Verse
Gb|------------------|------------------|------------------|------------------||
Db|------------------|------------------|------------------|------------------||
Ab|------------------|------------------|------------------|------------------||
Eb|-3-3-0----3---3-0-|--3-3-0----3-3-0--|--3---3-0---3-3-0-|-0-0-3----0---0-3-||

 (continued)
Gb|------------------|------------------|------------------|------------------||
Db|------------------|------------------|------------------|------------------||
Ab|------------------|--------2---2-3---|------------------|------------------||
Eb|-0-0-3----3-3-0---|-3-3--1---------1-|-3-3-0----3---3-0-|-3-3-0----3-3-0---||

 (continued)
Gb|------------------|------------------|------------------|---------------------||
Db|------------------|------------------|------------------|---------------------||
Ab|------------------|------------------|------------------|-----------------2---||
Eb|-3---3-0----3-3-0-|-0-0-3----0---0-3-|-0-0-3----3-3-0---|-3-3-0--1-1-1-1----1-||

 Pre-Chorus x2
 Intro/Chorus x1

 Post-Chorus
Gb|------------------||
Db|------------------||
Ab|------------------|| Repeat x2
Eb|-1-1-1----1-1-1---||

 Riff 2
Gb|------------------|------------------|------------------|------------------||
Db|------------------|------------------|------------------|------------------||
Ab|------------------|------------------|----------1--2----|-1--1--2----------||
Eb|-3-3-0----3---3-0-|-3-3-0----3-3-0---|-3-3--------------|----------1-------||

 Verse x1
 Pre-Chorus x2
 Chorus x1
 Post-Chorus x2

 Solo:
   I'm sorry, I couldn't make out the solo but, I think it's just Rex playing the Verse or 
a variation of the Verse.
 
 Bridge
Gb|------------------|------------------|------------------|----------------------------------||
Db|------------------|------------------|------------------|-12-12-12-12-12-12-12-12-12-------||
Ab|------------------|------------------|------------------|----------------------------------|| repeat x4
Eb|-1-1-1-1-1-1-1-1--|-1-1-1-1-1-1-1-1--|-1-1-1-1-1-1-1-1--|-----------------------------12--||

 (ending of the bridge)
Gb|--------------------------||
Db|-12-12-12-12-12-12-12-12--||
Ab|--------------------------||
Eb|--------------------------||

 Pre-Chorus x2
 Chorus x1
 Post-Chorus x1

 Outro
Gb|------------------|------------------|------------------|------------------||
Db|------------------|------------------|------------------|------------------||
Ab|------------------|------------------|------------------|------------------||
Eb|-3-3-0----3---3-0-|-3-3-0----3-3-0---|-3---3-0----3-3-0-|-3-3-0----3---3-0-||

 (continued)
Gb|------------------|------------------||
Db|------------------|------------------||
Ab|------------------|------------------||
Eb|-3-3-0----3-3-0---|-3---3-0----------||  END!
            
Submit corrections



        Rise lessons Hard to play? Try these video lessons and learn fast Rise lessons
        
↑ Back to top | Tablatures and chords for acoustic guitar and electric guitar, ukulele, drums are parodies/interpretations of the original songs. You may use it for private study, scholarship, research or language learning purposes only