» » »

Panda - Tripulacin Armar Toboganes Tabs

Artists:  A B C D E F G H I J K L M N O P Q R S T U V W X Y Z # 

Tripulacin Armar Toboganes Tabs

(ver. 1) Click to play this song!
Panda
 Rating:
4/5 (4 votes)


 Tripulacin Armar Toboganes lessons Tabs too difficult? Try these video lessons and learn fast
 
                ESTO VA TRINEADO, ES DECIR
MUY RAPIDO CON LA PÚA
E|--------------------------------------------------|
B|--------------888---666---------------------------|
G|-888-777----------------888---777-----------------|
D|---------888----------------------888--10-10------|
A|--------------------------------------------------|
E|--------------------------------------------------|

E|----------------------------------|
B|----------------------------------|
G|----8-8-8-------------------------|
D|----8-8-8-8-8-8--10-10-10--8-8-8--|
A|----6-6-6-8-8-8—-10-10-10--8-8-8--|
E|----------6-6-6—-8—-8--8---6-6-6--| X 2 DURANTE EL REKINTO

REKITNO:
E|-------------------15----15-13-11------|
B|-16----16-15-16-15----------------15---|
G|----15----------------15---------------|
D|---------------------------------------|
A|---------------------------------------|
E|---------------------------------------|

ESTO VA CON LA LETRA:
E|------------------------------------------------------|
B|------------------------------------------------------|
G|-8888888--7777777-------------------------------------|
D|------------------88888--10-10-10-10-12-12-12-12-12---|
A|------------------------------------------------------|
E|------------------------------------------------------|

E|-------------------------------------|
B|-------------------------------------|
G|-88888888--7777777-------------------|
D|--------------------555555--888888---|
A|-------------------------------------|
E|-------------------------------------| X 2

INTERMEDIO:
E|----------------------------------------------|
B|----------------------------------------------|
G|-7---7---7/8-8----/-5----7---7---7-/-12-12----|
D|---8---8-------8--/---6----8---8---/-13-13----|
A|----------------------------------------------|
E|----------------------------------------------|

SE REPITE PERO SIN EL INTERMEDIO

LUEGO EN “ME KIEOR INFORMAR……”  (VA MUTEADO)
E|----------------------------------|
B|----------------------------------|
G|----8-8-8-------------------------|
D|----8-8-8-8-8-8--10-10-10--8-8-8--|
A|----6-6-6-8-8-8—-10-10-10--8-8-8--|
E|----------6-6-6—-8—-8--8---6-6-6--|

INTERLUDE
E|----------18--------18----------|
B|----15/16-----15/16-----15/16---|
G|--------------------------------|
D|--------------------------------|    VARIAS VECES
A|--------------------------------|
E|--------------------------------|

E|-18-16-15----------|
B|----------18-16-15-|
G|-------------------|
D|-------------------|
A|-------------------|
E|-------------------|

E|-----------------|
B|-----------------|
G|-5-5--7-8--------|
D|-5-5--7-8--------|
A|-3-3--5-6--------|
E|-----------------|

DESPUES SE REPITE EL REKINTO KE VA EN LA ENTRADA
CON TODO Y ARMONÍA, Y LUEGO VA ESTO

E|----------------------------------------------|
B|----------------------------------------------|
G|-7---7---7/8-8----/-5----7---7---7-/-12-12----|
D|---8---8-------8--/---6----8---8---/-13-13----|
A|----------------------------------------------|
E|----------------------------------------------|

SEGUIDO VA ESTO, Y EN LA SEGUNDA PARTE SE TOKA CON REKINTO,
PERO DIFERENTE EL REKINTO
E|----------------------------|
B|----------------------------|
G|--10/12--8-/-10/-12---------|
D|--x-/-x--X-/-x-/--X---------|
A|--8-/10--6-/-8-/-10---------|
E|----------------------------| X 4

CUANDO SE ACABA E REPETIR DOS VECES,
SE ACOMPAÑA CON ESTO
E|----------------------------|
B|----------------------------|
G|----------------------------|
D|----------------------------|
A|----------------------------|
E|----------------------------|

INTERLUDE
E|----------18--------18----------|
B|----15/16-----15/16-----15/16---|
G|--------------------------------|
D|--------------------------------|    VARIAS VECES
A|--------------------------------|
E|--------------------------------|


DESPUES CON TOIDA LA LETRA SE REPITE EL LA ARMONIA
JUNTO CON EL INTERLUDE HASTA KE SE ACABA LA ROLA,
CON TODO Y LETRA Y CON DISTRCION.

E|----------------------------------|
B|----------------------------------|
G|----8-8-8-------------------------|
D|----8-8-8-8-8-8--10-10-10--8-8-8--|
A|----6-6-6-8-8-8—-10-10-10--8-8-8--|
E|----------6-6-6—-8—-8--8---6-6-6--|

INTERLUDE
E|----------18--------18----------|
B|----15/16-----15/16-----15/16---|
G|--------------------------------|
D|--------------------------------|    VARIAS VECES
A|--------------------------------|
E|--------------------------------|

E|-18-16-15----------|
B|----------18-16-15-|
G|-------------------|
D|-------------------|
A|-------------------|
E|-------------------|

YA LUEGO, DESPUES SE TOKAN LOS INTERLUDES
Y LA ARMONIA AL MISMO TIEMPO,
Y SE ACABA LA ROLA.

SALUDOS A LOS K LES GUSTA PANDA
PANDA RIFA.

AMO A MIS KERIDAS KAREN, ADILENE, SENYI,
KARINTHYA, MONSE, DANIELA

CUALKIER DUDA, SOLO
AGREGENME MI MAIL ES
            
Submit corrections



        Tripulacin Armar Toboganes lessons Hard to play? Try these video lessons and learn fast Tripulacin Armar Toboganes lessons
        
↑ Back to top | Tablatures and chords for acoustic guitar and electric guitar, ukulele, drums are parodies/interpretations of the original songs. You may use it for private study, scholarship, research or language learning purposes only