» » »

Panda - So Violento So Macabro Bass

Artists:  A B C D E F G H I J K L M N O P Q R S T U V W X Y Z # 

So Violento So Macabro Bass

(ver. 1) Click to play this song!
Panda
 Rating:
4/5 (4 votes)


 So Violento So Macabro lessons Tabs too difficult? Try these video lessons and learn fast
 
                Panda  So Violento so Macabro

Standard tuning

Intro (0.05)

G|---------------------------------------------------------------------|
D|---------------------------------------------------------------------|x2
A|-2222222222222222-6666666666666666-----------------------------------|
E|-----------------------------------4444444444444444-0000000000000000-|

Verso 

G|----------------------------------|
D|----------------------------------|x2
A|-2222222222222222-----------------|
E|------------------4444444444444444|

G|---------------------------------------------------------------------|
D|---------------------------------------------------------------------|
A|---------------------------------------------------------------------|
E|-2222222222222222-4444444444444444-2222222222222222-0000000022222222-|

Coro

G|---------------------------------------------------------------------|
D|---------------------------------------------------------------------|x2
A|-2222222222222222-6666666666666666-----------------------------------|
E|------------------------------------4444444444444444-0000000022222222|

Despues del Coro

G|--------------------------------------|
D|--------------------------------------|
A|-66666-------------66666--------------|
E|-------2--44444-0--------2--44444-000-|

Verso

G|----------------------------------|   |------|
D|----------------------------------|x2 |------|
A|-2222222222222222-----------------|   |------|
E|------------------4444444444444444|   |-2~---| 



Coro (1.40)

G|---------------------------------------------------------------------|
D|---------------------------------------------------------------------|x2
A|-2222222222222222-6666666666666666-----------------------------------|
E|-----------------------------------4444444444444444-0000000022222222-|

Bridge

G|------------------|   |-----------------|   |-----|
D|------------------|x4 |-----------------|x8 |-----|
A|-----222-66666666-|   |-----------------|   |-2~--|
E|-000--------------|   |-6-222-6-222-0-0-|   |-----|

Coro (2.47)

G|---------------------------------------------------------------------|
D|---------------------------------------------------------------------|x2
A|-2222222222222222-6666666666666666-----------------------------------|
E|-----------------------------------4444444444444444-0000000022222222-|

Termina en

G|-----|
D|-----|
A|-2~--|
E|-----|
            
Submit corrections



        So Violento So Macabro lessons Hard to play? Try these video lessons and learn fast So Violento So Macabro lessons
        
↑ Back to top | Tablatures and chords for acoustic guitar and electric guitar, ukulele, drums are parodies/interpretations of the original songs. You may use it for private study, scholarship, research or language learning purposes only