» » »

Panda - Martirio De Otro Tabs

Artists:  A B C D E F G H I J K L M N O P Q R S T U V W X Y Z # 

Martirio De Otro Tabs

(ver. 2) Click to play this song!
Panda
 Rating:
4/5 (4 votes)


 Martirio De Otro lessons Tabs too difficult? Try these video lessons and learn fast
 
                            ==========Solo Martirio de Otro=========
asi es como lo toca Arturo. lo publico en su twitter hoy

lo que el hace es que usa Delay, asi lo puso:


La idea es usar el delay a tu ventaja. Por cada nota de picking que haces te da 
otra. Hay que ser constantes y tratar de tocarlo lo mas limpio que se pueda. Tip: 
usa solo un poco de distorcion.

Setting:  Delay time 260ms, Mix 50% Feedback: Solo una repeticion. Phaser: Lento, 
sutil, y solo un poco nadamas para darle candela.

Si tienes un delay an*logo: Ve midiendo el tiempo. La repeticion tiene que estar 
al mismo volumen que la nota original.


aqui esta el ejemplo:




    |_____x4______|       |_____x4______|       \         
Eb|--------------------------------------------| \      
Bb|---12----11-------------17----16------------|  \      
Gb|------13----11-------------18----16---------|   \         
Db|--------------------------------------------|   /x2        
Ab|--------------------------------------------|  /           
Eb|--------------------------------------------| /            
                                                / 



                                                                   
Eb|---19--17--16-------------------------------|               
Bb|-----------------19--17--16-----------------|Salida                
Gb|------------------------------18--16--------|para 2 partes            
Db|--------------------------------------------|                    
Ab|--------------------------------------------|                 
Eb|--------------------------------------------|                    


                                                                   
                                                   ___                
     |______________x2________________|             |
Eb|----12-----11-----12-----14-----------------|    |          
Bb|--------9------9------9------9--------------|    |           
Gb|--------------------------------------------|    |             
Db|--------------------------------------------|    |             
Ab|--------------------------------------------|    |                  
Eb|--------------------------------------------|    |            
                                                    | x2         
                                                    |            
    |______________x2________________|              |               
Eb|--16------14------16------17----------------|    |             
Bb|------14------14------14------14------------|    |                 
Gb|--------------------------------------------|    |             
Db|--------------------------------------------|    |            
Ab|--------------------------------------------|    |                 
Eb|--------------------------------------------|    |
                                                    | 
                                                   _|__ 
                                                        

          "Enjoy you little f**kers!"
            
Submit corrections



        Martirio De Otro lessons Hard to play? Try these video lessons and learn fast Martirio De Otro lessons
        
↑ Back to top | Tablatures and chords for acoustic guitar and electric guitar, ukulele, drums are parodies/interpretations of the original songs. You may use it for private study, scholarship, research or language learning purposes only