Home » O » Ov7 »

Ov7 - Te Quiero Tanto Ukulele

Artists:  A B C D E F G H I J K L M N O P Q R S T U V W X Y Z # 

Te Quiero Tanto Ukulele

(ver. 1) Click to play this song!
Ov7
CAPO on the first fret

=== STRUMMING: ===========================

Intro goes like this:

    G        D      Am       C      G       
D      Am      C ( slow )
e|--3---3--3-22-2---0---0--0-00-0---3---3--3-22-0h2-0---0---0--------|
B|--0---0--0-33-3---1---1--1-11-1---0---0--0-33-3---1---1---1--------|
G|--0---0--0-22-2---2---2--2-00-0---0---0--0-22-2---2---2---0--------|
D|--0---0--0-00-0---2---2--2-22-0h2-0---0--0-00-0---2---2---2--------|
A|--2---2--2-00-0---0---0--0-33-3---2---2--2-00-0---0---0---3--------|
E|--3---3--3--------0---0--0-33-3---3---3--3--------0---0---3--------|


Verse:
      G       G     G   D D   D    
  Am      Am    Am  D D   D
e|----3-------3-----3---2-2---0h2-----0-------0-----0---2-2---0h2-|
B|----0-------0-----0---3-3---3-------1-------1-----1---3-3---3---|
G|----0-------0-----0---2-2---2-------2-------2-----2---2-2---2---|
D|----0-------0-----0---0-0---0-------2-------2-----2---0-0---0---|
A|----2-------2-----2---0-0---0-------0-------0-----0---0-0---0---|
E|----3-------3-----3-----------------0-------0-----0-------------|
     Si         tal vez            pudieras   comprender

     . . . . . . . . . . .

=== Full song ============================

Listen carefully to the song and you will be able to figure out where and how to change 
chords ( the right way ).


Intro:
   G  D  Am  C  G  D  Am  C

G      D     Am             D
si tal vez pudieras comprender
G      D     Am               D
que no se como expresarme bien
Em     Bm    C              Bm
si tal vez pudiera hacerte ver
     C          Bm               Em       D
que no hay otra mujer -  mejor que tu para mi

G      D       Am          D
si tal vez me harias muy feliz
G      D     Am            D
si tal vez me lo podrias decir
Em     Bm    C          Bm     C
si tal vez detalle a detalle -
C            Bm            Em   D
podrias conquistarme seria tuuuuya


CHORUS:
          G                        Em
te quiero tanto tanto  tanto tanto tanto
                Bm       C   D
cada dia un poco mas aaa-ha
          G                 Em
te quiero tanto tanto tanto tanto
                    Bm
para mi no hay nadie igual
     C     D
no lo hay
 Em                          D
te quiero tanto tanto tanto tanto amor
C              G   D   Am
que ya no puedo maaaaaaas
C              G   D   Am   C
que ya no puedo maaaaaaas


G        D       Am           D
pues tal vez el mundo aprendera
  G         D       Am             C
con nuestro amor lo bello que es amar
Em    Bm       C          Bm
y tal vez lo vuelva a repetir
  C          Bm             Em       D
pareja por pareja el mundo entero al fin

CHORUS

 C              G  D  Am
que ya no puedo maaaaaas
 C              G  D  Am
que ya no puedo maaaaaaas
.......

=== CHORDS ===============================

   E B G D A E

G  3 0 0 0 2 3
D  2 3 2 0 0 x
Am 0 1 2 2 0 0
Em 0 0 0 2 2 0
Bm 2 3 4 4 2 2
C  0 1 0 2 3 3  /
   3 5 5 5 3 3

==========================================
            
Submit corrections

↑ Back to top | Tablatures and chords for acoustic guitar and electric guitar, ukulele, drums are parodies/interpretations of the original songs. You may use it for private study, scholarship, research or language learning purposes only