Home » O » Outfield »

Outfield - Say It Isn't So Tabs

Artists:  A B C D E F G H I J K L M N O P Q R S T U V W X Y Z # 

Say It Isn't So Tabs

(ver. 1) Click to play this song!
Outfield
----------------------------------------------------------------------------
                       SAY IT ISNT SO - the outfield
----------------------------------------------------------------------------

Tuning:stadard


e|---------------------------------| Reapeat this 7 times on last 3 times 
B|---------------------------------| palm mute notes
G|-------9-----9-------------------|
D|-----9-----9---------------------|
A|---7-----7--------9--------------|
E|----------------7------5---------| 





e|--------------------------|
B|--------------------------|  Repeat this 4 times then in the chorus play 
G|----9---9-----------------|  beggining again un muted after chorus play 
D|----9---9---9---7---------|  begginig muted 3 times then play chords to 
A|----7---7---9---7---------|  the left again until chorus then your on 
E|------------7---5---------|  your own for the solo.
            
Submit corrections

↑ Back to top | Tablatures and chords for acoustic guitar and electric guitar, ukulele, drums are parodies/interpretations of the original songs. You may use it for private study, scholarship, research or language learning purposes only