» » »

Our Last Night - We Will All Evolve Tabs

Artists:  A B C D E F G H I J K L M N O P Q R S T U V W X Y Z # 

We Will All Evolve Tabs

(ver. 1) Click to play this song!
Our Last Night
 Rating:
4.4/5 (11 votes)

 We Will All Evolve lessons Tabs too difficult? Try these video lessons and learn fast
 
                
[Riff 1] - [00:01] - [00:10]
- ---------------------------------------------------------------------------------------------------------
- ---------------------------------------------------------------------------------------------------------
- -7-----------7-----------------------------------7-----------7-------------------------------------------
- -0--5--5-5---0--5--5-5---8--8--8-8---1--1--1-1---0--5--5-5---0--5--5-5---8--8--8-8---1--1--1-1-----------
- -6--5--5-5---6--5--5-5---8--8--8-8---1--1--1-1---6--5--5-5---6--5--5-5---8--8--8-8---1--1--1-1-----------
- ----5--5-5------5--5-5---8--8--8-8---1--1--1-1------5--5-5------5--5-5---8--8--8-8---1--1--1-1-----------


[Riff 2, Guitar 1 & 2] - [00:10] - [00:19]
- ---------------------------------------------------------------------------------------------------------
- ---------------------------------------------------------------------------------------------------------
- -7-----------7-----------------------------------7-----------7-------------------------------------------
- -0--5--5-5---0--5--5-5---------------1--1--1-1---0--5--5-5---0--5--5-5---------------1--1--1-1---xxx-xxx-
- -6--5--5-5---6--5--5-5---------------1--1--1-1---6--5--5-5---6--5--5-5---------------1--1--1-1---xxx-xxx-
- ----5--5-5------5--5-5---3--3--3-3---1--1--1-1------5--5-5------5--5-5---3--3--3-3---1--1--1-1---xxx-xxx-
-
- ---------------------------------------------------------------------------------------------------------
- ---------------------------------------------------------------------------------------------------------
- -7-----------7-----------------------------------7-----------7-------------------------------------------
- -0--5--5-5---0--5--5-5---8--8--8-8---1--1--1-1---0--5--5-5---0--5--5-5---8--8--8-8---1--1--1-1---xxx-xxx-
- -6--5--5-5---6--5--5-5---8--8--8-8---1--1--1-1---6--5--5-5---6--5--5-5---8--8--8-8---1--1--1-1---xxx-xxx-
- ----5--5-5------5--5-5---8--8--8-8---1--1--1-1------5--5-5------5--5-5---8--8--8-8---1--1--1-1---xxx-xxx-


[Riff 3, Guitar 1 & 2] - [00:19] - [00:28]
- -------------------------------------------------------
- -------------------------------------------------------
- -------------------------------------------------------
- -5-----------------5--5--5--5--------------------------
- -5-----------------5--5--5--5--------------------------
- -5-----------------5--5--5--5--------------------------
-
- -------------------------------------------------------
- -15p11----11----11----------------------------------15-
- -------14----14----12-12-12-12-------------14-11h14----
- -------------------------------12-12-12h16-------------
- -------------------------------------------------------
- -------------------------------------------------------


- -------------------------------------------------------------------------
- -------------------------------------------------------------------------
- -------------------------------------------------------------------------
- -------------------------------------------------------------------------
- -0--0--0--0-----------------0--0--0--0--0--0--0--------------------------
- -0--0--0--0-----------------0--0--0--0--0--0--0--------------------------
PM ..............................................
- -------------------------------------------------------------------------
- ----------------------------------------------------------------------15-
- -------------------------------------------------------------14-11h14----
- -------------------------------------------------------12h16-------------
- -0--0--0--0-----------------0--0--0--0--0--0--0--------------------------
- -0--0--0--0-----------------0--0--0--0--0--0--0--------------------------
PM ..............................................


- -------------------------------------------------------------------------------------------
- -------------------------------------------------------15p11----11-------------------------
- -------------------------------------------------------------14----14-11h12-12-12-12\------
- -------------------------------------------------------------------------------------------
- -0--0--0--0-----------------0--0--0--0--0--0--0--------------------------------------------
- -0--0--0--0-----------------0--0--0--0--0--0--0--------------------------------------------
PM ..............................................
- -------------------------------------------------------------------------------------------
- -------------------------------------------------------------------------------------------
- -------------------------------------------------------7-p3-----3--------------------------
- -------------------------------------------------------------7-----7--4-h5--5--5--5\-------
- -0--0--0--0-----------------0--0--0--0--0--0--0--------------------------------------------
- -0--0--0--0-----------------0--0--0--0--0--0--0--------------------------------------------
PM ..............................................


[Riff 4, Guitar 1 & 2] - [00:28] - [00:39]
- -------------------------------------------------------------------------------------------------
- -------------------------------------------------------------------------------------------------
- -------------------------------------------------------------------------------------------------
- -------------------------------------------------------------------------------------------------
- -------------------------------------------------------------------------------------------------
- -8p5-5-5---5-8p5-5-5---5-0h1h4-0h4h7-8p5-5-5---5-4p1-1-1---1-0h1-1-1---1-0h1h4-0h4h7-8p5-5-5---5-
-
- -------------------------------------------------------------------------------------------------
- -------------------------------------------------------------------------------------------------
- -------------------------------------------------------------------------------------------------
- -------------------------------------------------------------------------------------------------
- -------------------------------------------------------------------------------------------------
- -8p5-5-5---5-8p5-5-5---5-0h1h4-0h4h7-8p5-5-5---5-4p1-1-1---1-0h1-1-1---1-0h1h4-0h4h7-8p5-5-5---5-


- -------------------------------------------------------------------------------------------------
- -------------------------------------------------------------------------------------------------
- -------------------------------------------------------------------------------------------------
- -------------------------------------------------------------------------------------------------
- -------------------------------------------------------------------------------------------------
- -8p5-5-5---5-8p5-5-5---5-0h1h4-0h4h7-8p5-5-5---5-4p1-1-1---1-0h1-1-1---1-0h1h4-0h4h7-8p5-5-5-----
-
- -------------------------------------------------------------------------------------------------
- -------------------------------------------------------------------------------------------------
- -------------------------------------------------------------------------------------------------
- -------------------------------------------------------------------------------------------------
- -------------------------------------------------------------------------------------------------
- -8p5-5-5---5-8p5-5-5---5-0h1h4-0h4h7-8p5-5-5---5-7p4-4-4---4-3h4-4-4---4-0h1h4-0h4h7-8p5-5-5-----


[Riff 5, Guitar 1 & 2] - [00:39] - [00:51]
- -------------------------------------------------------------------------------------------------
- -------------------------------------------------------------------------------------------------
- -------10----------10----------------------------------10----------10----------------------------
- ----8-----8-----8--------------------------7--------8-----8-----8--------------------------7-----
- -6-----------6-----------------------6-h8--------6-----------6-----------------------6-h8--------
- -------------------------------------------------------------------------------------------------
-
- -------------------------------------------------------------------------------------------------
- -11-------11-------11-------11-------11----------11-------11-------11-------11-------11----------
- ----14-------14-------14-------14-------14----14----14-------14-------14-------14-------14----14-
- -------15----------------------------------15----------15----------------------------------15----
- -------------------------------------------------------------------------------------------------
- -------------------------------------------------------------------------------------------------
PM       ..                                  .....       ..                                  .....


- -------------------------------------------------------------------------------------------------
- -------------------------------------------------------------------------------------------------
- -------10----------10----------------------------------------------------------------------------
- ----8-----8-----8--------------------------7-----------------------------3--3--3--3--3--3--3--3--
- -6-----------6-----------------------6-h8--------1--1--1--1--1--1--1--1--3--3--3--3--3--3--3--3--
- -------------------------------------------------1--1--1--1--1--1--1--1--3--3--3--3--3--3--3--3--
PM                                                 ......................
- -------------------------------------------------------------------------------------------------
- -11-------11-------11-------11-------11----------15-15-15-15-15-15-15-15-13-13-13-13-13-13-13-13-
- ----14-------14-------14-------14-------14----14-15-15-15-15-15-15-15-15-14-14-14-14-14-14-14-14-
- -------15----------------------------------15----------------------------------------------------
- -------------------------------------------------------------------------------------------------
- -------------------------------------------------------------------------------------------------
PM       ..                                  .....


[Riff 6, Guitar 1 & 2] - [00:51] - [01:14]
- -------------------------------------------------------------------------------------------------
- -------------------------------------------------------------------------------------------------
- -------------------------------------------------------------------------------------------------
- -5--5--5--5--5--5--5--5--5--5--5--5--5--5--5--5-----5--5-----5--5--5--5-----5--5--5--------5--5--
- -5--5--5--5--5--5--5--5--5--5--5--5--5--5--5--5-----5--5-----5--5--5--5-----5--5--5---5555-5--5--
- -5--5--5--5--5--5--5--5--5--5--5--5--5--5--5--5-----5--5-----5--5--5--5-----5--5--5---5555-5--5--
PM                                                                                      ....
- -------------------------------------------------------------------------------------------------
- -15p11----11----------------------------------------15p11----11-------------15p11----11----------
- -------14----14-10----------10----10----------------------14----14-10-------------14----14-10----
- -------------------12----------12-------------------------------------12----------------------12-
- ----------------------15-------------------------------------------------------------------------
- -------------------------------------------------------------------------------------------------


- -------------------------------------------------------------------------------------------------
- -------------------------------------------------------------------------------------------------
- -------------------------------------------------------------------------------------------------
- ----1--1--1--1--1--1--1--1--1--1--1--1--1--1--1-----1--1--1--1--1--1--1-----1--1--1--1--1--1--1--
- ----1--1--1--1--1--1--1--1--1--1--1--1--1--1--1-----1--1--1--1--1--1--1-----1--1--1--1--1--1--1--
- ----1--1--1--1--1--1--1--1--1--1--1--1--1--1--1-----1--1--1--1--1--1--1-----1--1--1--1--1--1--1--
-
- -------------------------------------------------------------------------------------------------
- -15p11----11----------------------------------------15p11----11-------------15p11----11----------
- -------14----14-10----------10----10----------------------14----14-10-------------14----14-10----
- -------------------12----------12-------------------------------------12----------------------12-
- ----------------------15-------------------------------------------------------------------------
- -------------------------------------------------------------------------------------------------


- -------------------------------------------------------------------------------------------------
- -------------------------------------------------------------------------------------------------
- -------------------------------------------------------------------------------------------------
- -5--5--5--5--5--5--5--5--5--5--5--5--5--5--5--5-----5--5-----5--5--5--5-----5--5--5--------5--5--
- -5--5--5--5--5--5--5--5--5--5--5--5--5--5--5--5-----5--5-----5--5--5--5-----5--5--5---5555-5--5--
- -5--5--5--5--5--5--5--5--5--5--5--5--5--5--5--5-----5--5-----5--5--5--5-----5--5--5---5555-5--5--
PM                                                                                      ....
- -------------------------------------------------------------------------------------------------
- -15p11----11----------------------------------------15p11----11-------------15p11----11----------
- -------14----14-10----------10----10----------------------14----14-10-------------14----14-10----
- -------------------12----------12-------------------------------------12----------------------12-
- ----------------------15-------------------------------------------------------------------------
- -------------------------------------------------------------------------------------------------


- -------------------------------------------------------------------------------------------------
- -------------------------------------------------------------------------------------------------
- -------------------------------------------------------------------------------------------------
- ----1--1--1--1--1--1--1--1--1--1--1--1--1--1--1-----1--1--1--1--1--1--1--1-/3--3--3--3--3--3--3--
- ----1--1--1--1--1--1--1--1--1--1--1--1--1--1--1-----1--1--1--1--1--1--1--1-/3--3--3--3--3--3--3--
- ----1--1--1--1--1--1--1--1--1--1--1--1--1--1--1-----1--1--1--1--1--1--1--1-/3--3--3--3--3--3--3--
-
- -------------------------------------------------------------------------------------------------
- -15p11----11----------------------------------------15p11----11-------------11-11-11-11-11-11-11-
- -------14----14-10----------10----10----------------------14----14-10-------14-14-14b14b14b14b14-
- -------------------12----------12-------------------------------------12-------------------------
- ----------------------15-------------------------------------------------------------------------
- -------------------------------------------------------------------------------------------------


[Riff 1] - [01:14] - [01:23]
[Riff 2, Guitar 1 & 2] - [01:23] - [01:32]
[Riff 3, Guitar 1 & 2] - [01:32] - [01:43]


[Riff 7, Guitar 1 & 2] - [01:43] - [01:50]
- -------------------------------------------------------------------------
- -------------------------------------------------------------------------
- -------------------------------------------------------------------------
- -------------------------------------------------------------------------
- -0--0--0-----0--0--0--------0--0--0-----------0--0--0--0-----------------
- -0--0--0-----0--0--0--------0--0--0-----------0--0--0--0-----------------
PM .......................................................................
- -------------------------------------------------------------------------
- -------------------------------------------------------------------------
- -------------------------------------------------------------------------
- -------------------------------------------------------------------------
- -------------------------------------------------------------------------
- -0--0--0--0--0--0--0--0--0--0--0--0--0--0--0--0--0--0--0--0--0--0--0--0--
PM .......................................................................


- ----------------------------------------------------------------0--------------------------
- ----------------------------------------------------------------0--------------------------
- ----------------------------------------------------------------0--------------------------
- -------------------------------------------------------------------------------------------
- -0--0--0-----0--0--0--------0--0--0-----------0--0--0--0--0--0-----------------------------
- -0--0--0-----0--0--0--------0--0--0-----------0--0--0--0--0--0-----------------------------
PM .............................................................
- ----------------------------------------------------------------0--------------------------
- ----------------------------------------------------------------0--------------------------
- ----------------------------------------------------------------0--------------------------
- -------------------------------------------------------------------------------------------
- -------------------------------------------------------------------------------------------
- -0--0--0--0--0--0--0--0--0--0--0--0--0--0--0--0--0--0--0--0--0-----------------------------
PM .............................................................


[Riff 8, Guitar 1 & 2] - [01:50] - [02:13]
- ----------------------------------------------------------------------------------------------------------
- ----------------------------------------------------------------------------------------------------------
- ------------------------------[3]------------------[3]----------------------------------------------------
- ------------------------------[3]------------------[3]----------------------------------------0-----------
- -0--0--0--0-----0--0--0--0----[3]----0--0--0--0----[3]----0--0--0--0-----0-----0--0--0--0-----0-----------
- -1--1--1--1-----1--1--1--1-----------1--1--1--1-----------1--1--1--1-----1-----1--1--1--1-----0-----------
-
- ----------------------------------------------------------------------------------------------------------
- ------------------------------[3]-------------------------------------------------------------------------
- ------------------------------[3]------------------[3]---------------------------------------[3]----------
- ------------------------------[3]------------------[3]---------------------------------------[3]----------
- -0--0--0--0-----0--0--0--0-----------0--0--0--0----[3]----0--0--0--0-----0-----0--0--0--0----[3]----------
- -1--1--1--1-----1--1--1--1-----------1--1--1--1-----------1--1--1--1-----1-----1--1--1--1-----------------


- ----------------------------------------------------------------------------------------------------------
- ---------------------------------------------------[3]---------------------------------------[3]----------
- ---------------------------------------------------[3]---------------------------------------[3]----------
- -------------------------------0-------------------[3]---------------------------------------[3]----------
- -0--0--0--0-----0--0--0--0-----0-----0--0--0--0-----------0--0--0--0-----0-----0--0--0--0-----------------
- -1--1--1--1-----1--1--1--1-----0-----1--1--1--1-----------1--1--1--1-----1-----1--1--1--1-----------------
-
- ----------------------------------------------------------------------------------------------------------
- ----------------------------------------------------------------------------------------------------------
- ------------------------------[3]------------------[3]---------------------------------------[3]----------
- ------------------------------[3]------------------[3]---------------------------------------[3]----------
- -0--0--0--0-----0--0--0--0----[3]----0--0--0--0----[3]----0--0--0--0-----0-----0--0--0--0----[3]----------
- -1--1--1--1-----1--1--1--1-----------1--1--1--1-----------1--1--1--1-----1-----1--1--1--1-----------------


- ----------------------------------------------------------------------------------------------------------
- ---------------------------------------------------------------------------------------------[3]----------
- ---------------------------------------------------[3]---------------------------------------[3]----------
- -------------------------------0-------------------[3]---------------------------------------[3]----------
- -0--0--0--0-----0--0--0--0-----0-----0--0--0--0----[3]----0--0--0--0-----0-----0--0--0--0-----------------
- -1--1--1--1-----1--1--1--1-----0-----1--1--1--1-----------1--1--1--1-----1-----1--1--1--1-----------------
-
- ----------------------------------------------------------------------------------------------------------
- ---------------------------------------------------------------------------------------------[3]----------
- ------------------------------[3]------------------[3]---------------------------------------[3]----------
- ------------------------------[3]------------------[3]---------------------------------------[3]----------
- -0--0--0--0-----0--0--0--0----[3]----0--0--0--0----[3]----0--0--0--0-----0-----0--0--0--0-----------------
- -1--1--1--1-----1--1--1--1-----------1--1--1--1-----------1--1--1--1-----1-----1--1--1--1-----------------


- ----------------------------------------------------------------------------------------------------------
- ------------------------------[3]------------------[3]---------------------------------------[3]----------
- ------------------------------[3]------------------[3]---------------------------------------[3]----------
- ------------------------------[3]------------------[3]---------------------------------------[3]----------
- -0--0--0--0-----0--0--0--0-----------0--0--0--0-----------0--0--0--0-----0-----0--0--0--0-----------------
- -1--1--1--1-----1--1--1--1-----------1--1--1--1-----------1--1--1--1-----1-----1--1--1--1-----------------
-
- ----------------------------------------------------------------------------------------------------------
- ---------------------------------------------------------------------------------------------[3]----------
- ------------------------------[3]------------------[3]---------------------------------------[3]----------
- ------------------------------[3]------------------[3]---------------------------------------[3]----------
- -0--0--0--0-----0--0--0--0----[3]----0--0--0--0----[3]----0--0--0--0-----0-----0--0--0--0-----------------
- -1--1--1--1-----1--1--1--1-----------1--1--1--1-----------1--1--1--1-----1-----1--1--1--1-----------------


[Riff 9, Guitar 1 & 2] - [02:13] - [02:25]
- -------------------------------------------------------------------------------------------------
- -------------------------------------------------------------------------------------------------
- -------10----------10----------------------------------10----------10----------------------------
- ----8-----8-----8--------------------------7--------8-----8-----8--------------------------7-----
- -6-----------6-----------------------6-h8--------6-----------6-----------------------6-h8--------
- -------------------------------------------------------------------------------------------------
-
- -------------------------------------------------------------------------------------------------
- -------------------------------------------------------------------------------------------------
- -------------------------------------------------------------------------------------------------
- -------------------------------------------------------------------------------------------------
- -------------------------------------------------------------------------------------------------
- -------------------------------------------------------------------------------------------------


- -------------------------------------------------------------------------------------------------
- -------------------------------------------------------------------------------------------------
- -------10----------10----------------------------------------------------------------------------
- ----8-----8-----8--------------------------7-----------------------------3--3--3--3--3--3--3--3--
- -6-----------6-----------------------6-h8--------1--1--1--1--1--1--1--1--3--3--3--3--3--3--3--3--
- -------------------------------------------------1--1--1--1--1--1--1--1--3--3--3--3--3--3--3--3--
PM                                                 ......................
- -------------------------------------------------------------------------------------------------
- -------------------------------------------------15-15-15-15-15-15-15-15-13-13-13-13-13-13-13-13-
- -------------------------------------------------15-15-15-15-15-15-15-15-14-14-14-14-14-14-14-14-
- -------------------------------------------------------------------------------------------------
- -------------------------------------------------------------------------------------------------
- -------------------------------------------------------------------------------------------------


[Riff 6, Guitar 1 & 2] - [02:25] - [02:48]


[Riff 10, Guitar 1 & 2] - [02:48] - [03:10] - [x2]
- -------------------------------------------------------------------------------------------------
- -------------------------------------------------------------------------------------------------
- -------------------------------------------------------------------------------------------------
- -1--1--1--1--1--1--1--1--1--1--1--1--1--1--1--1--1--1--1--1--1--1--1--1--1--1--1--1--1-/3--3--3--
- -1--1--1--1--1--1--1--1--1--1--1--1--1--1--1--1--1--1--1--1--1--1--1--1--1--1--1--1--1-/3--3--3--
- -1--1--1--1--1--1--1--1--1--1--1--1--1--1--1--1--1--1--1--1--1--1--1--1--1--1--1--1--1-/3--3--3--
-
- -------------------------------------------------------------------------------------------------
- -------------------------------------------------------------------------------------------------
- -12-12-12-12-12-12-12-12-12-12-12-12-12-12-12-12-12-12-12-12-12-12-12-12-12-12-12-12-12/14-14-14-
- -x--x--x--x--x--x--x--x--x--x--x--x--x--x--x--x--x--x--x--x--x--x--x--x--x--x--x--x--x--x--x--x--
- -10-10-10-10-10-10-10-10-10-10-10-10-10-10-10-10-10-10-10-10-10-10-10-10-10-10-10-10-10/12-12-12-
- -------------------------------------------------------------------------------------------------


- -------------------------------------------------------------------------------------------------
- -------------------------------------------------------------------------------------------------
- -------------------------------------------------------------------------------------------------
- -5--5--5--5--5--5--5--5--5--5--5--5--5--5--5--5--5--5--5--5--5--5--5--5--8--8--8--8--8--8--8--8--
- -5--5--5--5--5--5--5--5--5--5--5--5--5--5--5--5--5--5--5--5--5--5--5--5--8--8--8--8--8--8--8--8--
- -5--5--5--5--5--5--5--5--5--5--5--5--5--5--5--5--5--5--5--5--5--5--5--5--8--8--8--8--8--8--8--8--
-
- -------------------------------------------------------------------------------------------------
- -------------------------------------------------------------------------------------------------
- -15-15-15-15-15-15-15-15-15-15-15-15-15-15-15-15-15/17-17-17-17-17-17-17-17/19-19-19-19\14-14-14-
- -x--x--x--x--x--x--x--x--x--x--x--x--x--x--x--x--x--x--x--x--x--x--x--x--x--x--x--x--x--x--x--x--
- -13-13-13-13-13-13-13-13-13-13-13-13-13-13-13-13-13/15-15-15-15-15-15-15-15/17-17-17-17\12-12-12-
- -------------------------------------------------------------------------------------------------


[Riff 11, Guitar 1 & 2] - [03:10] - [03:22]
- -------------------------------------------------------------------------------------------------
- -------------------------------------------------------------------------------------------------
- -------------------------------------------------------------------------------------------------
- -1-----------------------------------3-----------5-----------------------------------8-----------
- -1-----------------------------------3-----------5-----------------------------------8-----------
- -1-----------------------------------3-----------5-----------------------------------8-----------
-
- -------------------------------------------------------------------------------------------------
- -11-------11-------11-------11-------11----------11-------11-------11-------11-------13----------
- ----14-------14-------14-------14-------14----14----14-------14-------14-------14-------14----14-
- -------15----------------------------------15----------15----------------------------------15----
- -------------------------------------------------------------------------------------------------
- -------------------------------------------------------------------------------------------------
PM       ..                                  .....       ..                                  .....


- -------------------------------------------------------------------------------------------------
- -------------------------------------------------------------------------------------------------
- -------------------------------------------------------------------------------------------------
- -1-----------------------------------3-----------5-----------------------------------------------
- -1-----------------------------------3-----------5-----5--5--5--5--5--5--5--8--8--8--8--8--8--8--
- -1-----------------------------------3-----------5-----5--5--5--5--5--5--5--8--8--8--8--8--8--8--
PM                                                       .........................................
- -------------------------------------------------------------------------------------------------
- -11-------11-------11-------11-------11----------11-11-11-11-11-11-11-11-13-13-13-13-13-13-13-13-
- ----14-------14-------14-------14-------14----14-10-10-10-10-10-10-10-10-10-10-10-10-10-10-10-10-
- -------15----------------------------------15----------------------------------------------------
- -------------------------------------------------------------------------------------------------
- -------------------------------------------------------------------------------------------------
PM       ..                                  .....


[Riff 12, Guitar 1 & 2] - [03:22] - [03:33]
- -------------------------------------------------------------------------------------------------
- -------------------------------------------------------------------------------------------------
- -------------------------------------------------------------------------------------------------
- -1--1--1-----1-----1--1--1-----1-----1-/3--3--3--5--5--5-----5-----5--5--5-----5-----8--8--8--8--
- -1--1--1-----1-----1--1--1-----1-----1-/3--3--3--5--5--5-----5-----5--5--5-----5-----8--8--8--8--
- -1--1--1-----1-----1--1--1-----1-----1-/3--3--3--5--5--5-----5-----5--5--5-----5-----8--8--8--8--
-
- -------------------------------------------------------------------------------------------------
- -11-------11-------11-------11-------11----------11-------11-------11-------11-------13----------
- ----14-------14-------14-------14-------14----14----14-------14-------14-------14-------14----14-
- -------15-------15-------15-------15-------15----------15-------15-------15-------15-------15----
- -------------------------------------------------------------------------------------------------
- -------------------------------------------------------------------------------------------------



- -------------------------------------------------------------------------------------------------
- -------------------------------------------------------------------------------------------------
- -------------------------------------------------------------------------------------------------
- -1--1--1-----1-----1--1--1-----1-----1-/3--3--3--5--5--5-----5-----5--5--5-----5-----------4--4--
- -1--1--1-----1-----1--1--1-----1-----1-/3--3--3--5--5--5-----5-----5--5--5-----5------5555-5--5--
- -1--1--1-----1-----1--1--1-----1-----1-/3--3--3--5--5--5-----5-----5--5--5-----5------4444-4--4--
PM                                                                                      ....
- -------------------------------------------------------------------------------------10----------
- -11-------11-------11-------11-------11----------11-------11-------11-------11----------10----10-
- ----14-------14-------14-------14-------14----14----14-------14-------14-------14----------11----
- -------15-------15-------15-------15-------15----------15-------15-------15-------15-------------
- -------------------------------------------------------------------------------------------------
- -------------------------------------------------------------------------------------------------


[Riff 13, Guitar 1 & 2] - [03:33] - [03:38]
- ---------------------------------------------------------------------------------------------------------
- ---------------------------------------------------------------------------------------------------------
- ---------------------------------------------------------------------------------------------------------
- ---------------------4--/5-----------------------------------------------------------------------0-------
- -5\----------------------------------------------------------------------------------------------0-------
- -------1-----0-----------------4-----0-------0-0-1p0-0-0-----0-0-1p0-0-0-----0-0-1-1-0-0-1-1-4-4-0-------
PM                                             ...     .       ...     .       ...................
- ---------------------------------------------------------------------------------------------------------
- ---------------------------------------------------------------------------------------------------------
- ---------------------------------------------------------------------------------------------------------
- -------------------------------------------------------------------------------------------------0-------
- -5\------------------5--/6-----------------------------------------------------------------------0-------
- -------1-----0-----------------1-----0-------0-0-1p0-0-0-----0-0-1p0-0-0-----0-0-1-1-0-0-1-1-4-4-0-------
PM                                             ...     .       ...     .       ...................


[Riff 14] - [03:38] - [03:45]
- -----------------------------------------------------------------
- -----------------------------------------------------------------
- -----------------------------------------------------------------
- -----------------------------------------------------------------
- -0-0-0-0-----0-0-0-0-0-0-----0-0-0-0-0-0---0-0---0-0-0-0-0-------
- -0-0-0-0-----0-0-0-0-0-0-----0-0-0-0-0-0---0-0---0-0-0-0-0-------
PM ...............................................................

- -----------------------------------------------------------------
- -----------------------------------------------------------------
- -----------------------------------------------------------------
- -----------------------------------------------------------------
- -0-0-0-0-----0-0-0-0-0-0-----0-0-0-0-0-0-----0-0-----------------
- -0-0-0-0-----0-0-0-0-0-0-----0-0-0-0-0-0-0---0-0-0---------------
PM .......................................     ...


[Riff 15, Guitar 1 & 2] - [03:45] - [03:59]
- -----------------------------------------------------------------
- -----------------------------------------------------------------
- -----------------------------------------------------------------
- -5-5-5-5-----5-5-4-4-4-4-----4-4-1-1-1-1---1-1---1-1-1-1-1-------
- -5-5-5-5-----5-5-5-5-5-5-----5-5-1-1-1-1---1-1---1-1-1-1-1-------
- -5-5-5-5-----5-5-4-4-4-4-----4-4-1-1-1-1---1-1---1-1-1-1-1-------
-
- -----------------------------------------------------------------
- -----------------------------------------------------------------
- -12--------------14--------------15--------------19--------------
- -x---------------x---------------x---------------x---------------
- -10(x8)----------12(x8)----------13(x8)----------17(x8)----------
- -----------------------------------------------------------------


- -----------------------------------------------------------------
- -----------------------------------------------------------------
- -----------------------------------------------------------------
- -----------------------------------------4-----------------------
- -0-0-0-0-----0-0-0-0-0-0-----0-0-5-5-5-5-5-------5-5---5-5---5-5-
- -0-0-0-0-----0-0-0-0-0-0-----0-0-4-4-4-4-4-------4-4---4-4---4-4-
PM .......................................         ...............
- -----------------------------------------------------------------
- -----------------------------------------------------------------
- -15------------------------------14------------------------------
- -x-------------------------------x-------------------------------
- -13(x16)-------------------------12(x16)-------------------------
- -----------------------------------------------------------------


- -----------------------------------------------------------------
- -----------------------------------------------------------------
- -----------------------------------------------------------------
- -5-5-5-5-----5-5-4-4-4-4-----4-4-1-1-1-1---1-1---1-1-1-1-1-------
- -5-5-5-5-----5-5-5-5-5-5-----5-5-1-1-1-1---1-1---1-1-1-1-1-------
- -5-5-5-5-----5-5-4-4-4-4-----4-4-1-1-1-1---1-1---1-1-1-1-1-------
-
- -----------------------------------------------------------------
- -----------------------------------------------------------------
- -12--------------14--------------15--------------19--------------
- -x---------------x---------------x---------------x---------------
- -10(x8)----------12(x8)----------13(x8)----------17(x8)----------
- -----------------------------------------------------------------


- -----------------------------------------------------------------
- -----------------------------------------------------------------
- -----------------------------------------------------------------
- -------------------------------------------------4---------------
- -0-0-0-0-----0-0-0-0-0-0-----0-0-5-5-5-5-5---5-5-5---------------
- -0-0-0-0-----0-0-0-0-0-0-----0-0-4-4-4-4-4---4-4-4---------------
PM ...............................................
- -----------------------------------------------------------------
- -----------------------------------------------------------------
- -15------------------------------14--------------14--------------
- -x-------------------------------x---------------x---------------
- -13(x16)-------------------------12(x16)---------12--------------
- -----------------------------------------------------------------


[Riff 16] - [03:59] - [04:22]
- -1-----------------------------------------------------------------------------------------------
- -4-----------------------------------------------------------------------------------------------
- -3-----------------------------------------------------------------------------------------------
- -1-----------------------------------------------------------------------7-----------------------
- -1-----------------------------------------------------------------------3-----------------------
- -1-----------------------------------------------------------------------3-----------------------
-
- -------------------------------------------------------------------------------------------------
- -------------------------------------------------------------------------------------------------
- -------------------------------------------------------------------------------------------------
- -------------------------------------------------------------------------------------------------
- -------------------------------------------------------------------------------------------------
- -------------------------------------------------------------------------------------------------


- -------------------------------------------------------------------------------------------------
- -------------------------------------------------------------------------------------------------
- -------------------------------------------------------------------------------------------------
- -8-----------------------------------------------------------------------12----------------------
- -5-----------------------------------------------------------------------8-----------------------
- -5-----------------------------------------------------------------------8-----------------------
-
- -------------------------------------------------------------------------------------------------
- -------------------------------------------------------------------------11-11-11-11-11-11-11-11-
- -------------------------------------------------------------------------------------------------
- -------------------------------------------------------------------------------------------------
- -------------------------------------------------------------------------------------------------
- -------------------------------------------------------------------------------------------------
PM                                                                         .......................


- -------------------------------------------------------------------------------------------------
- -------------------------------------------------------------------------------------------------
- -------------------------------------------------------------------------------------------------
- -5-----------------------------------------------------------------------7-----------------------
- -1-----------------------------------------------------------------------3-----------------------
- -1-----------------------------------------------------------------------3-----------------------
-
- -------------------------------------------------------------------------------------------------
- -13-13-11-11-------11-11-10-10-------------------------------------------------------------------
- -------------10-10-------------10-10-------------------------------------------------------------
- -------------------------------------12-12-12-12-12-12-12-12-12-12-12-12-10-10-10-10-10-10-10-10-
- -------------------------------------------------------------------------------------------------
- -------------------------------------------------------------------------------------------------
PM ...............................................................................................


- -------------------------------------------------------------------------------------------------
- -------------------------------------------------------------------------------------------------
- -------------------------------------------------------------------------------------------------
- -8-----------------------------------------------------------------------12----------------------
- -5-----------------------------------------------------------------------8-----------------------
- -5-----------------------------------------------------------------------8-----------------------
-
- -------------------------------13-13-10-10-10-10-10-10-10-10-10-10-10-10-------------------------
- -13-13-11-11-------11-11-10-10-------------------------------------------13-13-13-13-13-13-13-13-
- -------------10-10-------------------------------------------------------------------------------
- -------------------------------------------------------------------------------------------------
- -------------------------------------------------------------------------------------------------
- -------------------------------------------------------------------------------------------------
PM ...............................................................................................


- -------------------------------------------------------------------------------------------------
- -------------------------------------------------------------------------------------------------
- -------------------------------------------------------------------------------------------------
- -5-----------------------------------------------------------------------7-----------------------
- -1-----------------------------------------------------------------------3-----------------------
- -1-----------------------------------------------------------------------3-----------------------
-
- -------------------------------------------------------------------------------------------------
- -13-13-11-11-------11-11-10-10-------------------------------------------------------------------
- -------------10-10-------------10-10-------------------------------------------------------------
- -------------------------------------12-12-12-12-12-12-12-12-12-12-12-12-10-10-10-10-10-10-10-10-
- -------------------------------------------------------------------------------------------------
- -------------------------------------------------------------------------------------------------
PM ...............................................................................................


- -------------------------------------------------------------------------------------------------
- -------------------------------------------------------------------------------------------------
- -------------------------------------------------------------------------------------------------
- -8-----------------------------------------------------------------------12----------------------
- -5-----------------------------------------------------------------------8-----------------------
- -5-----------------------------------------------------------------------8-----------------------
-
- -------------------------------13-13-10-10-10-10-10-10-10-10-10-10-10-10-------------------------
- -13-13-11-11-------11-11-10-10-------------------------------------------13-13-13-13-13-13-13-13-
- -------------10-10-------------------------------------------------------------------------------
- -------------------------------------------------------------------------------------------------
- -------------------------------------------------------------------------------------------------
- -------------------------------------------------------------------------------------------------
PM ...............................................................................................


- -------------------------------------------------------------------------------------------------
- -------------------------------------------------------------------------------------------------
- -------------------------------------------------------------------------------------------------
- -5-----------------------------------------------------------------------------------------------
- -1-----------------------------------------------------------------------------------------------
- -1-----------------------------------------------------------------------------------------------
-
- -------------------------------------------------------------------------------------------------
- -13-13-11-11-------11-11-10-10-------------------------------------------------------------------
- -------------10-10-------------10-10-------------------------------------------------------------
- -------------------------------------12-12-12-12-12-12-12-12-12-12-12-12-12-12-12-12-12-12-12-12-
- -------------------------------------------------------------------------------------------------
- -------------------------------------------------------------------------------------------------
PM ...............................................................................................            
Submit corrections


        We Will All Evolve lessons Hard to play? Try these video lessons and learn fast We Will All Evolve lessons
        
↑ Back to top | Tablatures and chords for acoustic guitar and electric guitar, ukulele, drums are parodies/interpretations of the original songs. You may use it for private study, scholarship, research or language learning purposes only