» » »

Our Last Night - Same Old War Tabs

Artists:  A B C D E F G H I J K L M N O P Q R S T U V W X Y Z # 

Same Old War Tabs

(ver. 1) Click to play this song!
Our Last Night
 Rating:
4.2/5 (30 votes)

 Same Old War lessons Tabs too difficult? Try these video lessons and learn fast
 
                [Intro] (Up to you for the rhythm)

e|---------------------------------------------------------------------------|
B|---------------------------------------------------------------------------|
G|-----7------10-------------------------------------------------------------|
D|-----7------10------8------------------------------------------------------|
A|-----5------8-------8------------------------------------------------------|
E|--------------------6------------------------------------------------------| X2


[Verse] (Acoustic)

e|---5-----------------------------------------------------------------------|
B|---6------------6----------------------------------------------------------|
G|---7-----10-----7----------------------------------------------------------|
D|---7-----10-----8----------------------------------------------------------|
A|---------8------8----------------------------------------------------------|
E|---------------------------------------------------------------------------| X3


e|---------------------------------------------------------------------------|
B|---------------------------------------------------------------------------|
G|---------7----10-----------------------------------------------------------|
D|---------7----10-----------------------------------------------------------|
A|---------5----8------------------------------------------------------------|
E|---/15---5----8----6-6-6-6--6-6-6-6--6--6-6-6--6-6-6-6---5-5-5-5-5h6p5-----|
                     PM|---------------------    -------   -------

e|---------------------------------------------------------------------------|
B|---------------------------------------------------------------------------|
G|------------------------------------9--------------------------------------|
G|---------------------7(x8)----------9--------------------------------------|
D|---------7(x8)-8(x8)-------8(x16)---7--------------------------------------|
E|---3(x8)-------------------------------------------------------------------|


[Chorus] (Up to you for the rhythm)

e|---------------------------------------------------------------------------|
B|---------------------------------------------------------------------------|
G|---7---------------7-------------------------------------------------------|
D|---7--10--3--5-----7--10--8------X-X---------------------------------------|
A|---5--10--3--5-----5--10--8------X-X---------------------------------------|
E|------8---1--3--------8---6------X-X---------------------------------------|

e|---------------------------------------------------------------------------|
B|---------------------------------------------------------------------------|
G|---7-----------------------------------------------------------------------|
D|---7--10--6----------------------------------------------------------------|
A|---5--10--8----------------------------------------------------------------|
E|------8---8----------------------------------------------------------------| X2
I'll never close my eyes...

[Verse]

e|---------------------------------------------------------------------------|
B|---------------------------------------------------------------------------|
G|---7--9--10------5--5--3---------------------------------------------------|
D|---------------------------------------------------------------------------|
A|---5--7--8-------7--3--1---------------------------------------------------|
E|---------------------------------------------------------------------------| X2

(Acoustic) Fast alternated picking (Up to you for the rhythm)

e|---------------------------------------------------------------------------|
B|---11(repeat)-8(repeat)-10(repeat)-13(repeat)-15(repeat)-17----------------|
G|---------------------------------------------------------------------------|
D|---------------------------------------------------------------------------|
A|---------------------------------------------------------------------------|
E|---------------------------------------------------------------------------|

[Chorus] (Up to you for the rhythm)

e|---------------------------------------------------------------------------|
B|---------------------------------------------------------------------------|
G|---7---------------7-------------------------------------------------------|
D|---7--10--3--5-----7--10--8------X-X---------------------------------------|
A|---5--10--3--5-----5--10--8------X-X---------------------------------------|
E|------8---1--3--------8---6------X-X---------------------------------------|

e|---------------------------------------------------------------------------|
B|---------------------------------------------------------------------------|
G|---7-----------------------------------------------------------------------|
D|---7--10--6----------------------------------------------------------------|
A|---5--10--8----------------------------------------------------------------|
E|------8---8----------------------------------------------------------------| X2
I'll never close my eyes...

[Piano Chords]
Stay strong, keep moving...

e|---6-----------------------------------------------------------------------|
B|---8----6----5-------------------------------------------------------------|
G|---7----7----7----9--------------------------------------------------------|
D|--------8----7----10-------------------------------------------------------|
A|--------8---------10-------------------------------------------------------|
E|------------------8--------------------------------------------------------| X4

[Solo]

e|---------------------------------------------------------------------------|
B|---17b18--17-17--18--17-18-17----------------------------------------------|
G|------------------------------14h15hp14-12---10----------------------------|
D|---------------------------------------------------------------------------|
A|---------------------------------------------------------------------------|
E|---------------------------------------------------------------------------|

e|------------------------15-------------------------------------------------|
B|---11-10-10-11-10-10-11----11-10-10-11-10-10-11-s17-17p18h17---------------|
G|---------------------------------------------------------------------------|
D|---------------------------------------------------------------------------|
A|---------------------------------------------------------------------------|
E|---------------------------------------------------------------------------|

[Chorus] (Up to you for the rhythm)

e|---------------------------------------------------------------------------|
B|---------------------------------------------------------------------------|
G|---7---------------7-------------------------------------------------------|
D|---7--10--3--5-----7--10--8------X-X---------------------------------------|
A|---5--10--3--5-----5--10--8------X-X---------------------------------------|
E|------8---1--3--------8---6------X-X---------------------------------------|

e|---------------------------------------------------------------------------|
B|---------------------------------------------------------------------------|
G|---7-----------------------------------------------------------------------|
D|---7--10--6----------------------------------------------------------------|
A|---5--10--8----------------------------------------------------------------|
E|------8---8----------------------------------------------------------------| X2
I'll never close my eyes...

            
Submit corrections


        Same Old War lessons Hard to play? Try these video lessons and learn fast Same Old War lessons
        
↑ Back to top | Tablatures and chords for acoustic guitar and electric guitar, ukulele, drums are parodies/interpretations of the original songs. You may use it for private study, scholarship, research or language learning purposes only