» » »

Our Last Night - Habits Stay High Tabs

Artists:  A B C D E F G H I J K L M N O P Q R S T U V W X Y Z # 

Habits Stay High Tabs

(ver. 1) Click to play this song!
Our Last Night
 Rating:
4/5 (4 votes)

 Habits Stay High  lessons Tabs too difficult? Try these video lessons and learn fast
 
                (Intro)/(Verse 1)
e|-----------------------------------------------------|
B|-----------------------------------------------------|
G|--10-10-10-10-10-10-10-10-10-10-10-10----------------|
D|-----------------------------------------------------|  x20 
A|-----------------------------------------------------|
E|-----------------------------------------------------|     I gotta stay...


(Chorus) High, all the time...
e|---------------------------------------------------------------------------|
B|---------------------------------------------------------------------------|
G|-----7----7----7----7----7--9--10---10---10---10---10-10-------------------|
D|-----7----7----7----7----7--9--10---10---10---10---10-10-------------------|
A|-----5----5----5----5----5--7--8----8----8----8----8--8--------------------|
E|---------------------------------------------------------------------------|

(you can either continue that power chord or slide up to)___________________
                                                                            \
e|-----------------------------------------------------------            ----------------|                    
B|-----------------------------------------------------------            ----------------|
G|-----10---10---10---10---10-10-10---10---10---10---10-10---    OR      ------14--------|
D|-----10---10---10---10---10-10-10---10---10---10---10-10---   Slide    ------12--------| 
A|-----8----8----8----8----8--8--8----8----8----8----8--8----    Up      ------12--------|
E|-----------------------------------------------------------            ----------------|

x2

...spend my days...
e|-----------------------------------------------------------------------------------------------|
B|-----------------------------------------------------------------------------------------------|
G|----15--15--15--15--15-15-14--14--14--14--14-14--10--10--10--10--10-10-10--10--10--10--10-10---|
D|----15--15--15--15--15-15-12--12--12--12--12-12--10--10--10--10--10-10-10--10--10--10--10-10---|
A|----13--13--13--13--13-13-12--12--12--12--12-12--8---8---8---8---8--8--8---8---8---8---8--8----|
E|-----------------------------------------------------------------------------------------------|

e|---------------------------------------------------------------------------|
B|---------------------------------------------------------------------------|
G|-----7----7----7----7----7--9--10---10---10---10---10-10-------------------|
D|-----7----7----7----7----7--9--10---10---10---10---10-10-------------------|
A|-----5----5----5----5----5--7--8----8----8----8----8--8--------------------|
E|---------------------------------------------------------------------------|

(you can either continue that power chord or slide up to)___________________
                                                                            \
e|-----------------------------------------------------------            ----------------|                    
B|-----------------------------------------------------------            ----------------|
G|-----10---10---10---10---10-10-10---10---10---10---10-10---    OR      ------14--------|
D|-----10---10---10---10---10-10-10---10---10---10---10-10---   Slide    ------12--------| 
A|-----8----8----8----8----8--8--8----8----8----8----8--8----    Up      ------12--------|
E|-----------------------------------------------------------            ----------------|


(Verse 2) ...pick up mommies at the playground...

(pull offs)
e|-------------------------------13----------|  
B|---15-13-10-15-13-10-15-13-10----15-13-10--|

e|-------------------------------13----------|
B|---15-13-10-15-13-10-15-13-10----15-13-10--|

e|-------------------------------13----------|
B|---15-13-10-15-13-10-15-13-10----15-13-10--|

e|----------------------------------13--15---|
B|---15-13-10-15-13-10-15-13-10--15----------|

e|-------------------------------13----------|
B|---15-13-10-15-13-10-15-13-10----15-13-10--|

e|-------------------------------13----------|
B|---15-13-10-15-13-10-15-13-10----15-13-10--|

e|-----------------------------------13--15--17----|
B|---15-13-10-15-13-10-15-13-10---15---------------|


---(Chorus)--- ...High all the time...spend my days...High all my life...


(Bridge)...staying in my play pretend... 

e|---------8---------8---------8---------8--------------8---------8---------8------|
B|---10--10----10--10----10--10----10--10---------10--10----10--10----10--10-------|
G|-----10--------9---------10--------10-------------10--------9---------10---------|
D|---------------------------------------------------------------------------------|
A|---------------------------------------------------------------------------------|
E|---------------------------------------------------------------------------------|

e|-----------8-----------------8-----------------8-----------------8---------------|
B|-------10----10--10------10----10--10------10----10--10------10----10--10--------|
G|-----10--10----10------12--12----12------10--10----10------9----9-----9----------|
D|---------------------------------------------------------------------------------|
A|---------------------------------------------------------------------------------|
E|---------------------------------------------------------------------------------|
 
                                                                           ...High all the... 
e|-----------8-----------------8----------------8-------------8-----------|---8-------|
B|-------10----10--10------10----10--10---------10------------10----------|---10------|
G|-----10--10----10------12--12----12-----------10------------9-----------|---10------|
D|------------------------------------------------------------------------|-----------|
A|------------------------------------------------------------------------|-----------|
E|------------------------------------------------------------------------|-----------|

...time... (power chords)
----(Chorus)-----


(Outro)
e|-------------------------------------------|
B|---------------8---------------------------|
G|-----7---7-7---7---7-7-7---10--7-----------|
D|-----7---7-7---5---7-7-7---10--7-----------|
A|-----5---5-5---5---5-5-5---8---5-----------|
E|-------------------------------------------|
            
Submit corrections


        Habits Stay High  lessons Hard to play? Try these video lessons and learn fast Habits Stay High  lessons
        
↑ Back to top | Tablatures and chords for acoustic guitar and electric guitar, ukulele, drums are parodies/interpretations of the original songs. You may use it for private study, scholarship, research or language learning purposes only