» » »

Our Last Night - Forgotten Souls Tabs

Artists:  A B C D E F G H I J K L M N O P Q R S T U V W X Y Z # 

Forgotten Souls Tabs

(ver. 1) Click to play this song!
Our Last Night
 Rating:
2.8/5 (20 votes)

 Forgotten Souls  lessons Tabs too difficult? Try these video lessons and learn fast
 
                Tuning: standard (CAPO ON 1st FRET)

Intro

e|-9-------------9----------------8------------8---------------------------|
B|-------11------------11---------------9------------9---------------------|
G|----10----10------10-----10--------10---10------10---10------------------| 3X
D|-------------------------------------------------------------------------|
A|-0-----------------------------(10)--------------------------------------|
E|-------------------------------------------------------------------------|

e|--9-------------9-----------9----------9---------------------------------|
B|--------9-------------9----------9----------9----------------------------|
G|-----10---10-------10---10----10---10----10---10-------------------------|
D|--11---------------------------------------------------------------------|
A|-------------------------------------------------------------------------|
E|-------------------------------------------------------------------------|



Verse 1
A mother's love, close enough to touch...

e|-9-------------9----------------8------------8---------------------------|
B|-------11------------11---------------9------------9---------------------|
G|----10----10------10-----10--------10---10------10---10------------------| 3X
D|-------------------------------------------------------------------------|
A|-0-----------------------------(10)--------------------------------------|
E|-------------------------------------------------------------------------|

e|--9-------------9-----------9----------9---------------------------------|
B|--------9-------------9----------9----------9----------------------------|
G|-----10---10-------10---10----10---10----10---10-------------------------|
D|--11---------------------------------------------------------------------|
A|-------------------------------------------------------------------------|
E|-------------------------------------------------------------------------|

A passion so fake, controlled by the play...

e|-9-------------9----------------8------------8---------------------------|
B|-------11------------11---------------9------------9---------------------|
G|----10----10------10-----10--------10---10------10---10------------------|
D|-------------------------------------------------------------------------|
A|-0-----------------------------(10)--------------------------------------|
E|-------------------------------------------------------------------------|

e|-9-------------9------11----------8------------8-------------------------|
B|-------11-----------------------------9------------9---------------------|
G|----10----10------10-----10--------10---10------10---10------------------| 
D|-------------------------------------------------------------------------|
A|-0-----------------------------(10)--------------------------------------|
E|-------------------------------------------------------------------------|

e|-9-------------9----------------8------------8---------------------------|
B|-------11------------11---------------9------------9---------------------|
G|----10----10------10-----10--------10---10------10---10------------------| 
D|-------------------------------------------------------------------------|
A|-0-----------------------------(10)--------------------------------------|
E|-------------------------------------------------------------------------|

e|--9-------------9-----------9----------9---------------------------------|
B|--------9-------------9----------9----------9----------------------------|
G|-----10---10-------10---10----10---10----10---10-------------------------|
D|--11---------------------------------------------------------------------|
A|-------------------------------------------------------------------------|
E|-------------------------------------------------------------------------|




Chorus 1

F            C
A warm heart numb to the pain
G
The hopeless tears fall from her face
F              C
Forgotten soul born in a grave
G
Fifteen years locked in a cage
F                    C                    G
Our daughters are too scared to stop them
          Am           G
Our sons, what have we taught them?
F       C                  G
Have we really strayed this far from love?



INTRO



Verse 2
Her body enslaved into sin and under age...

e|-9-------------9----------------8------------8---------------------------|
B|-------11------------11---------------9------------9---------------------|
G|----10----10------10-----10--------10---10------10---10------------------| 3X
D|-------------------------------------------------------------------------|
A|-0-----------------------------(10)--------------------------------------|
E|-------------------------------------------------------------------------|

e|--9-------------9-----------9----------9---------------------------------|
B|--------9-------------9----------9----------9----------------------------|
G|-----10---10-------10---10----10---10----10---10-------------------------|
D|--11---------------------------------------------------------------------|
A|-------------------------------------------------------------------------|
E|-------------------------------------------------------------------------|

Holding her breath waiting to drown...

e|-9-------------9----------------8------------8---------------------------|
B|-------11------------11---------------9------------9---------------------|
G|----10----10------10-----10--------10---10------10---10------------------|
D|-------------------------------------------------------------------------|
A|-0-----------------------------(10)--------------------------------------|
E|-------------------------------------------------------------------------|

e|-9-------------9------11----------8------------8-------------------------|
B|-------11-----------------------------9------------9---------------------|
G|----10----10------10-----10--------10---10------10---10------------------| 
D|-------------------------------------------------------------------------|
A|-0-----------------------------(10)--------------------------------------|
E|-------------------------------------------------------------------------|

e|-9-------------9----------------8------------8---------------------------|
B|-------11------------11---------------9------------9---------------------|
G|----10----10------10-----10--------10---10------10---10------------------| 
D|-------------------------------------------------------------------------|
A|-0-----------------------------(10)--------------------------------------|
E|-------------------------------------------------------------------------|

e|--9-------------9-----------9----------9---------------------------------|
B|--------9-------------9----------9----------9----------------------------|
G|-----10---10-------10---10----10---10----10---10-------------------------|
D|--11---------------------------------------------------------------------|
A|-------------------------------------------------------------------------|
E|-------------------------------------------------------------------------|




Chorus 2

F            C
A warm heart numb to the pain
G
The hopeless tears fall from her face
F              C
Forgotten soul born in a grave
G
Fifteen years locked in a cage
F                    C                    G
Our daughters are too scared to stop them
          Am           G
Our sons, what have we taught them?
F       C                  G
Have we really strayed this far from love?


GUITAR 2 (ELECTRIC GUITAR - CLEAN - REVERB AND DELAY)This sounds good to me
but if you think they play it different please send a correction!

e|---------------------------------------------------------------------------|
B|---------------------------------------------------------------------------|
G|----6---6---6---6----10--10--10---10---8---8---8---8---8---8---8--8--------| 2X
D|--4---4---4---4---11---11--11--11----6---6---6---6---6---6---6---6---------|
A|---------------------------------------------------------------------------|
E|---------------------------------------------------------------------------|

e|---------------------------------------------------------------------------|
B|----------14-8X---13-8X--11-8X---------14-8X---13-16X----------------------|
G|--10-8X-------------------------10-8X--------------------------------------|
D|---------------------------------------------------------------------------|
A|---------------------------------------------------------------------------|
E|---------------------------------------------------------------------------|




Verse 3 or Bridge

Am              C      F
No one to even say goodbye
             Am      C   F
She sees no value in her life
                Am                       C
This is not the rise and the fall of the tide
              F
A pain in the chest and two watering eyes
Am                     C             F
Have we really strayed this far from love?



Outro

Am-C-F 2X

Piano melodie
e|-------------------------------|
B|-------------------------------|
G|----10~--------8--10~----------| 2X
D|------------11-----------11~---|
A|-------------------------------|
E|-------------------------------|            
Submit corrections


        Forgotten Souls  lessons Hard to play? Try these video lessons and learn fast Forgotten Souls  lessons
        
↑ Back to top | Tablatures and chords for acoustic guitar and electric guitar, ukulele, drums are parodies/interpretations of the original songs. You may use it for private study, scholarship, research or language learning purposes only