» » »

Our Last Night - Escape Tabs

Artists:  A B C D E F G H I J K L M N O P Q R S T U V W X Y Z # 

Escape Tabs

(ver. 1) Click to play this song!
Our Last Night
 Rating:
4.1/5 (31 vote)

 Escape lessons Tabs too difficult? Try these video lessons and learn fast
 
                [Riff 1] - [00:00] - [00:05]
- -----------------------------------------------------------------
- -----------------------------------------------------------------
- -----5-----5-----5-----5-----5-------5-----5-----5-----5--5------
- ---3-----3-----3-----3-----3---3---3-----3-----3-----3----3------
- -5-----0-----1-----1------1------5-----0-----1-----1------1------
- -----------------------------------------------------------------


[Riff 2, Guitar 1 & 2] - [00:05] - [00:27] - [x2]
- -------------10--------------------------------------------------
- -10p-8-----------10------11----------10------10--8--h10------10--
- ---------10----------10--10--------------10--------------10------
- -----------------------------------------------------------------
- -----------------------------------------------------------------
- -----------------------------------------------------------------
-
- -----------------------------------------------------------------
- -----------------------------------------------------------------
- -5---5---5---5---5---5---3---3---3---3---3---3---3---3---3---3---
- -3---3---3---3---3---3---3---3---3---3---3---3---3---3---3---3---
- -5---5---5---0---0---0---1---1---1---1---1---1---1---1---1---1---
- -----------------------------------------------------------------


- -------------10--------------------------------------------------
- -10p-8-----------10------11----------10------10--8--h10------10--
- ---------10----------10--10--------------10--------------10------
- -----------------------------------------------------------------
- -----------------------------------------------------------------
- -----------------------------------------------------------------
-
- -----------------------------------------------------------------
- -----------------------------------------------------------------
- -5---5---5---5---5---5---3---3---3---3---3---3---3---3---3---3---
- -3---3---3---3---3---3---3---3---3---3---3---3---3---3---3---3---
- -5---5---5---0---0---0---1---1---1---1---1---1---1---1---1---1---
- -----------------------------------------------------------------


- -------------0-----------8-----------0---0---0---0---0---0---0---
- -----6-----------6-------8-----------6---6---6---6---6---6---6---
- -5-------5-----------5---5---------------------------------------
- -----------------------------------------------------------------
- -----------------------------------------------------------------
- -----------------------------------------------------------------
-
- -----------------------------------------------------------------
- -----------------------------------------------------------------
- -5---5---5---5---5---5---3---3---3---3---3---3---3---3---3---3---
- -3---3---3---3---3---3---3---3---3---3---3---3---3---3---3---3---
- -5---5---5---0---0---0---1---1---1---1---1---1---1---1---1---1---
- -----------------------------------------------------------------


- -------------------------8---8---8---8---8---8---8---8---8---8---
- -6---6---6---6---6---6---8---8---8---8---8---8---8---8---8---8---
- -x---x---x---x---x---x---6---6---6---6---6---6---6---6---6---6---
- -3---3---3---3---3---3-------------------------------------------
- -----------------------------------------------------------------
- -----------------------------------------------------------------
-
- -----------------------------------------------------------------
- -----------------------------------------------------------------
- -5---5---5---5---5---5---5---5---5---5---5---5---5---5---5---5---
- -3---3---3---3---3---3---5---5---5---5---5---5---5---5---5---5---
- -0---0---0---0---0---0---3---3---3---3---3---3---3---3---3---3---
- -----------------------------------------------------------------


[Riff 3, Guitar 1 & 2] - [00:27] - [00:39]
- -----------------------------------------------------------------
- -----------------------------------------------------------------
- -------------5-------0-------------------------------------------
- ---------3---------------3---------------------------------------
- -----5-----------------------0-----------------------------------
- -----------------------------------------------------------------
-
- -----------------------------0-----------------------------------
- -10-p8-------8---8-------8---------------------------------------
- ---------10----------10------------------10----------------------
- -----------------------------------------------------------------
- -----------------------------------------------------------------
- -----------------------------------------------------------------


- -----------------------------------------------------------------
- -----------------------------------------------------------------
- -------------2-------------------------------0-------------------
- ---------3-------3-----------------------3-------3---------------
- -----1---------------1---------------3---------------3-----------
- -----------------------------------------------------------------
-
- -----------------8--/10------------------------------------------
- --------------------------10----------------------10-------------
- -----10-p9-------------------------------/12--------------12\----
- -------------10--------------------------------------------------
- -----------------------------------------------------------------
- -----------------------------------------------------------------


- -----------------------------------------------------------------
- -----------------------------------------------------------------
- -------------5-------0-------------------------------------------
- ---------3---------------3---------------------------------------
- -----5-----------------------0-----------------------------------
- -----------------------------------------------------------------
-
- -----------------------------------------------------------------
- -----------------------------------------------------------------
- -----------------------------------------------------------------
- -2--h3-----------------------------------------------------------
- ---------3---3--p5---3---5---0-----------------------------------
- -----------------------------------------------------------------
PM         .           .....


- -----------------------------------------------------------------
- -----------------------------------------------------------------
- -------------2-------------------------------0-------------------
- ---------3-------3-----------------------3-------3---------------
- -----1---------------1---------------3---------------3-----------
- -----------------------------------------------------------------
-
- -----------------------------------------------------------------
- -----------------------------------------------------------------
- -------------------------------------10--10--10--10-/12----------
- -------------------------------------x---x---x---x---x-----------
- -----7---7---7---7--/8---------------8---8---8---8--/10----------
- -----------------------------------------------------------------


[Riff 4, Guitar 1 & 2] - [00:39] - [00:50]
- -----3---3-----------3---0-----------3---3-----------3---3h5p3---
- ---6---6---6---6---6---6---6---6---6---6---6---6---6---6-------6-
- -5-----------5---5-----------5---5-----------5---5---------------
- -----------------------------------------------------------------
- -----------------------------------------------------------------
- -----------------------------------------------------------------
PM ...   .     .   ...   .     .   ...   .     .   ...   .
- -3-3-3-3-3-3-3-3-3-3-3-3-3-3-3-3-0-0-0-0-0-0-0-0-0-0-0-0-0-0-0-0-
- -6-6-6-6-6-6-6-6-6-6-6-6-6-6-6-6-1-1-1-1-1-1-1-1-1-1-1-1-1-1-1-1-
- -5-5-5-5-5-5-5-5-5-5-5-5-5-5-5-5-0-0-0-0-0-0-0-0-0-0-0-0-0-0-0-0-
- -----------------------------------------------------------------
- -----------------------------------------------------------------
- -----------------------------------------------------------------


- -----3---3-----------3---0-----------3---3-----------------------
- ---6---6---6---6---6---6---6---6---6---6---6---6-----------------
- -5-----------5---5-----------5---5-----------5-------------------
- -----------------------------------------------------------------
- -----------------------------------------------------------------
- -----------------------------------------------------------------
PM ...   .     .   ...   .     .   ...   .     .
- -3-3-3-3-3-3-3-3-3-3-3-3-3-3-3-3-0-0-0-0-0-0-0-0-0-----0-----0---
- -6-6-6-6-6-6-6-6-6-6-6-6-6-6-6-6-1-1-1-1-1-1-1-1---6-----6-----6-
- -5-5-5-5-5-5-5-5-5-5-5-5-5-5-5-5-0-0-0-0-0-0-0-0-----5-----5-----
- -----------------------------------------------------------------
- -----------------------------------------------------------------
- -----------------------------------------------------------------
PM                                                     .     .


[Riff 4] - [00:50] - [01:14]
- -----------------------------------------------------------------
- -----------------------------------------------------------------
- -----------------------------------------------------------------
- -7-7-7-7-7-7-7-7-7-7-7-7-7-7-7-7-7-7-7-7-7-7-7-7-7-7-7-7-7-7-7-7-
- -0-0-0-0-0-0-0-0-0-0-0-0-0-0-0-0-8-8-8-8-8-8-8-8-8-8-8-8-8-8-8-8-
- -0-0-0-0-0-0-0-0-0-0-0-0-0-0-0-0-5-5-5-5-5-5-5-5-7-7-7-7-7-7-7-7-

- -----------------------------------------------------------------
- -----------------------------------------------------------------
- -----------------------------------------------------------------
- -7-7-7-7-7-7-7-7-7-7-7-7-7-7-7-7-7-7-7-7-7-7-7-7-7-7-7-7-x-3-----
- -0-0-0-0-0-0-0-0-0-0-0-0-0-0-0-0-8-8-8-8-8-8-8-8-8-8-8-8-x-3-----
- -0-0-0-0-0-0-0-0-0-0-0-0-0-0-0-0-8-8-8-8-8-8-5-5-5-5-5-5-x-3-----

- -----------------------------------------------------------------
- -----------------------------------------------------------------
- -----------------------------------------------------------------
- -7-7-7-7-7-7-7-7-7-7-7-7-7-7-7-7-7-7-7-7-7-7-7-7-7-7-7-7-7-7-7-7-
- -0-0-0-0-0-0-0-0-0-0-0-0-0-0-0-0-8-8-8-8-8-8-8-8-8-8-8-8-8-8-8-8-
- -0-0-0-0-0-0-0-0-0-0-0-0-0-0-0-0-5-5-5-5-5-5-5-5-7-7-7-7-7-7-7-7-

- ---------------------------------------------------------------------------------
- ---------------------------------------------------------------------------------
- -----------------------------------------------------------------------------7---
- -7-7-7-7-7-7-7-7-7-7-7-7-7-7-7-7-7-7-7-7-7-7-7-7-7-7-7-7-x-3-----0-----------x---
- -0-0-0-0-0-0-0-0-0-0-0-0-0-0-0-0-8-8-8-8-8-8-8-8-8-8-8-8-x-3-----0-----------5---
- -0-0-0-0-0-0-0-0-0-0-0-0-0-0-0-0-8-8-8-8-8-8-5-5-5-5-5-5-x-3-----0---------------


[Riff 5, Guitar 1 & 2] - [01:14] - [01:34]
- -----------------------------------------------------------------
- -----------------------------------------------------------------
- -----------------------------------------------------------------
- -0---------------------------------------------------------------
- -0---------------------------------------------------------------
- -0-------------------------------------------------------12\-----
-
- -----------------------------------------------------------------
- -----------------------------------------------------------------
- -------------2---------------------------------------------------
- -0---------------3---------------5-5-3-3-2---3---2---------------
- -0---0-0-0-----------0---0-0-0-----------------------5-5-3-3-5-5-
- -0---0-0-0-----------0---0-0-0-----------------------------------
PM     .....           ...........................................


- -------------------------------------------------------------------------
- -------------------------------------------------------------------------
- -3-------------------------------------------------------2---------------
- -3-------------------------------0---3-3-2-2-0---5-5-3-3-----------------
- -1-----------------------------------------------------------4---4---0---
- ---------------------------------------------------------------------0---
PM                                                                     .
- -------------------------------------------------------------------------
- -------------------------------------------------------------------------
- -------------------------5-------------------------------2---------------
- -------------3---2-----------2---0---3-3-2-2-0---5-5-3-3-----------------
- -0---1-1-1-----------3---------------------------------------4---4---0---
- ---------------------------------------------------------------------0---
PM     .....           .                                               .


- -----------------------------------------------------------------
- -----------------------------------------------------------------
- -----------------------------------------------------------------
- -0-------------------------------5-5-3-3-2---3---2---------------
- -0---0-0-0-----------0---0-0-0-----------------------5-5-3-3-5-5-
- -0---0-0-0-----------0---0-0-0-----------------------------------
PM     ...........................................................
-
- -----------------------------------------------------------------
- -----------------------------------------------------------------
- -------------2---------------------------------------------------
- -0---------------3---------------5-5-3-3-2---3---2---------------
- -0---0-0-0-----------0---0-0-0-----------------------5-5-3-3-5-5-
- -0---0-0-0-----------0---0-0-0-----------------------------------
PM     .....           ...........................................


- -------------------------------------------------------------------------
- -------------------------------------------------------------------------
- -------------------------5-------------------------------2---------------
- -------------3---2-----------2---0---3-3-2-2-0---5-5-3-3-----------------
- -0---1-1-1-----------3---------------------------------------4---4---0---
- ---------------------------------------------------------------------0---
PM     .....           .                                               .
- -------------------------------------------------------------------------
- -------------------------------------------------------------------------
- -------------------------5-------------------------------2---------------
- -------------3---2-----------2---0---3-3-2-2-0---5-5-3-3-----3---3-------
- -0---1-1-1-----------3-----------------------------------------------0---
- ---------------------------------------------------------------------0---
PM     .....           .                                               .


- -----------------------------------------------------------------
- -----------------------------------------------------------------
- -----------------------------------------------------------------
- -0-------------------------------5-5-3-3-2---3---2---------------
- -0---0-0-0-----------0---0-0-0-----------------------5-5-3-3-5-5-
- -0---0-0-0-----------0---0-0-0-----------------------------------
PM     ...........................................................
-
- -----------------------------------------------------------------
- -----------------------------------------------------------------
- -------------2---------------------------------------------------
- -0---------------3---------------5-5-3-3-2---3---2---------------
- -0---0-0-0-----------0---0-0-0-----------------------5-5-3-3-5-5-
- -0---0-0-0-----------0---0-0-0-----------------------------------
PM     .....           ...........................................


- -------------------------------------------------------------------------
- -------------------------------------------------------------------------
- -------------------------5-------------------------------2---------------
- -------------3---2-----------2---0---3-3-2-2-0---5-5-3-3-----------------
- -0---1-1-1-----------3---------------------------------------4---4---0---
- ---------------------------------------------------------------------0---
PM     .....           .                                               .
- -------------------------------------------------------------------------
- -------------------------------------------------------------------------
- -------------------------5-------------------------------2---------------
- -------------3---2-----------2---0---3-3-2-2-0---5-5-3-3-----3---3-------
- -0---1-1-1-----------3-----------------------------------------------0---
- ---------------------------------------------------------------------0---
PM     .....           .                                               .


[Riff 6, Guitar 1 & 2] - [01:34] - [01:51]
- -----------------------------------------------------------------
- -----------------------------------------------------------------
- -----------------------------------------------------------------
- ---------------------------------------------------------0-------
- -0-----0-----0-------5---5---0---0-0-0-0-----0-------3-------3---
- -0-----0-----0---------------0---0-0-0-0-----0-------------------
PM .............               .................
- -----------------------------------------------------------------
- -----------------------------------------------------------------
- -----------------------------------------------------------------
- ---------------------------------------------------------0-------
- -0-------------------5---5---0---0-0-0-0-----0-------3-------3---
- -0---------------------------0---0-0-0-0-----0-------------------
PM .                           .................


- -----------------------------------------------------------------
- -----------------6-----------------------------------------------
- -----------------9-----------------------------------------------
- -0-----------------------------------0---2---3---5---------------
- -----0---0---0-------0---0-0-------------------------1-----------
- -----0---0---0-------0---0-0-------------------------------------
PM     .........       .......
- -----------------------------------------------------------------
- -----------------6-----------------------------------------------
- -----------------9-----------------------------------------------
- -0-----------------------------------0---2---3---5---------------
- -----0---0---0-------0---0-0-------------------------4-----------
- -----0---0---0-------0---0-0-------------------------------------
PM     .........       .......


- -----------------------------------------------------------------
- -----------------------------------------------------------------
- -----------------------------------------------------------------
- ---------------------------------------------------------0-------
- -0-----0-----0-------5---5---0---0-0-0-0-----0-------3-------3---
- -0-----0-----0---------------0---0-0-0-0-----0-------------------
PM .............               .................
- -----------------------------------------------------------------
- -----------------------------------------------------------------
- -----------------------------------------------------------------
- ---------------------------------------------------------0-------
- -0-------------------5---5---0---0-0-0-0-----0-------3-------3---
- -0---------------------------0---0-0-0-0-----0-------------------
PM .                           .................


- -----------------------------------------------------------------
- -----------------6-----------------------------------------------
- -----------------9-----------------------------------------------
- -0-----------------------------------0---2---3---5---------------
- -----0---0---0-------0---0-0------------------------[4b]---------
- -----0---0---0-------0---0-0-------------------------------------
PM     .........       .......
- -----------------------------------------------------------------
- -----------------6-----------------------------------------------
- -----------------9-----------------------------------------------
- -0-----------------------------------0---2---3---5---------------
- -----0---0---0-------0---0-0------------------------[4b]---------
- -----0---0---0-------0---0-0-------------------------------------
PM     .........       .......


- -----------------------------------------------------------------
- -----------------------------------------------------------------
- -----------------------------------------------------------------
- -----------------------------------------------------------------
- -0-----0-----0-------5---5---0---0-0-0-0-----0-0-0-0----[5]------
- -0-----0-----0---------------0---0-0-0-0-----0-0-0-0-------------
PM .............               .......................
- -----------------------------------------------------------------
- -----------------------------------------------------------------
- -----------------------------------------------------------------
- -----------------------------------------------------------------
- -0-----0-----0-------5---5---0---0-0-0-0-----0-0-0-0-------------
- -0-----0-----0---------------0---0-0-0-0-----0-0-0-0----[5]------
PM .............               .......................


- -----------------------------------------------------------------
- -----10----------------------------------------------------------
- ---------12-p0---9--/10-p0---------------------------------------
- -----------------------------7-----------------------------------
- -----------------------------------------------------------------
- -----------------------------------------------------------------
-
- -----------------------------------------------------------------
- -----6-----------------------------------------------------------
- ---------9--p0---5--/7--p0---------------------------------------
- -----------------------------7-----------------------------------
- -----------------------------------------------------------------
- -----------------------------------------------------3--/12\-----


[Riff 7, Guitar 1 & 2] - [01:51] - [02:14]
- -----------------------------------------------------------------
- -3---3---3-3-3-0---0-0---0-0-0-0-5---5---5-5-5-6---6-6---6-6-6-6-
- -3---3---3-3-3-1---1-1---1-1-1-1-5---5---5-5-5-7---7-7---7-7-7-7-
- -3---3---3-3-3-2---2-2---2-2-2-2-5---5---5-5-5-7---7-7---7-7-7-7-
- -1---1---1-1-1-0---0-0---0-0-0-0-3---3---3-3-3-5---5-5---5-5-5-5-
- -----------------------------------------------------------------
-
- -----------------------------------------------------------------
- -3---3---3-3-3-0---0-0---0-0-0-0-5---5---5-5-5-6---6-6---6-6-6-6-
- -3---3---3-3-3-1---1-1---1-1-1-1-5---5---5-5-5-7---7-7---7-7-7-7-
- -3---3---3-3-3-2---2-2---2-2-2-2-5---5---5-5-5-7---7-7---7-7-7-7-
- -1---1---1-1-1-0---0-0---0-0-0-0-3---3---3-3-3-5---5-5---5-5-5-5-
- -----------------------------------------------------------------


- -----------------------------------------------------------------
- -3---3---3-3-3-0---0-0---0-0-0-0-5---5---5-5-5-6---6-6---6-6-6-6-
- -3---3---3-3-3-1---1-1---1-1-1-1-5---5---5-5-5-7---7-7---7-7-7-7-
- -3---3---3-3-3-2---2-2---2-2-2-2-5---5---5-5-5-7---7-7---7-7-7-7-
- -1---1---1-1-1-0---0-0---0-0-0-0-3---3---3-3-3-5---5-5---5-5-5-5-
- -----------------------------------------------------------------
-
- -----------------------------------------------------------------
- -----------------------------------------------------------------
- -5-5---------2-2-----------------5-5---------2-2-----------------
- -----2-2-3-3-----2-2-3-3-5-5-3-3-----2-2-3-3-----2-2-3-3-5-5-3-3-
- -----------------------------------------------------------------
- -----------------------------------------------------------------


- -----------------------------------------------------------------
- -3-3-3-3-3-3-3-3-0-0-0-0-0-0-0-0-5-5-5-5-5-5-5-5-6-6-6-6-6-6-6-6-
- -3-3-3-3-3-3-3-3-1-1-1-1-1-1-1-1-5-5-5-5-5-5-5-5-7-7-7-7-7-7-7-7-
- -3-3-3-3-3-3-3-3-2-2-2-2-2-2-2-2-5-5-5-5-5-5-5-5-7-7-7-7-7-7-7-7-
- -1-1-1-1-1-1-1-1-0-0-0-0-0-0-0-0-3-3-3-3-3-3-3-3-5-5-5-5-5-5-5-5-
- -----------------------------------------------------------------
-
- -----------------------------------------------------------------
- -----------------------------------------------------------------
- ---------2h5-----------------------------2h5---------------------
- -3p2---------3p2---------3p2-----3p2---------3p2-3h5-3p2-3h5-3p2-
- -----3h5-----------------------------3p5-------------------------
- -----------------------------------------------------------------


- -----------------------------------------------------------------
- -3-3-3-3-3-3-3-3-0-0-0-0-0-0-0-0-5-5-5-5-5-5-5-5-----------------
- -3-3-3-3-3-3-3-3-1-1-1-1-1-1-1-1-5-5-5-5-5-5-5-5-----------------
- -3-3-3-3-3-3-3-3-2-2-2-2-2-2-2-2-5-5-5-5-5-5-5-5-0-0-0-0-0-0-0-0-
- -1-1-1-1-1-1-1-1-0-0-0-0-0-0-0-0-3-3-3-3-3-3-3-3-0-0-0-0-0-0-0-0-
- -------------------------------------------------0-0-0-0-0-0-0-0-
-
- ---------5h8-----------------------------5h8---------------------
- -6p5---------6p5---------6p5-----6p5---------6p5-6h8-6p5-6h8-6p5-
- -----5h7-----------------------------5h7-------------------------
- -----------------------------------------------------------------
- -----------------------------------------------------------------
- -----------------------------------------------------------------


[Riff 8, Guitar 1 & 2] - [02:14] - [02:24]
- -------------------------------------------------
- -6-6-6-5-5-5-6-6-6-5-5-5-6-6-5-5-5---5---5---5---
- -7-7-7-7-7-7-7-7-7-7-7-7-7-7-7-7-7---7---7---7---
- -------------------------------------------------
- -------------------------------------------------
- -------------------------------------------------
PM .......................
- -------------------------------------------------
- -------------------------------------------------
- -----------2-------------------------------------
- -3---3---------3-3---3---3h5p3p0-2---2---2---2---
- ---5---5-5---5-----5---5-------------------------
- -------------------------------------------------
PM   .   ...   .     .   .


- -----------------------------------------------------------------
- -6-6-6-5-5-5-6-6-6-5-5-5-6-6-5-5-6-----5-----3-------------------
- -7-7-7-7-7-7-7-7-7-7-7-7-7-7-7-7-7-----7-----5b------------------
- -----------------------------------------------------------------
- -----------------------------------------------------------------
- -----------------------------------------------------------------
PM ...........
- -----------------------------------------------------------------
- -----------------------------------------------------------------
- -----------2---------------------3-----------5-------------------
- -3---3---------3-3---3---3h5p3p0-3-----5-----5-------------------
- ---5---5-5---5-----5---5---------1-----------3-------------------
- -----------------------------------------------------------------
PM   .   ...   .     .   .


[Riff 9, Guitar 1 & 2] - [02:24] - [02:47]
- -----------------------------------------------------------------
- -----------------------------------------------------------------
- -----------------------------------------------------------------
- -7-7-7-7-7-7-7-7-7-7-7-7-7-7-7-7-7-7-7-7-7-7-7-7-7-7-7-7-7-7-7-7-
- -0-0-0-0-0-0-0-0-0-0-0-0-0-0-0-0-8-8-8-8-8-8-8-8-8-8-8-8-8-8-8-8-
- -0-0-0-0-0-0-0-0-0-0-0-0-0-0-0-0-5-5-5-5-5-5-5-5-7-7-7-7-7-7-7-7-

- -----------------------------------------------------------------
- -----------------------------------------------------------------
- -----------------------------------------------------------------
- -7-7-7-7-7-7-7-7-7-7-7-7-7-7-7-7-7-7-7-7-7-7-7-7-7-7-7-7-x-3-----
- -0-0-0-0-0-0-0-0-0-0-0-0-0-0-0-0-8-8-8-8-8-8-8-8-8-8-8-8-x-3-----
- -0-0-0-0-0-0-0-0-0-0-0-0-0-0-0-0-8-8-8-8-8-8-5-5-5-5-5-5-x-3-----

- -----------------------------------------------------------------
- -----------------------------------------------------------------
- -----------------------------------------------------------------
- -7-7-7-7-7-7-7-7-7-7-7-7-7-7-7-7-7-7-7-7-7-7-7-7-7-7-7-7-7-7-7-7-
- -0-0-0-0-0-0-0-0-0-0-0-0-0-0-0-0-8-8-8-8-8-8-8-8-8-8-8-8-8-8-8-8-
- -0-0-0-0-0-0-0-0-0-0-0-0-0-0-0-0-5-5-5-5-5-5-5-5-7-7-7-7-7-7-7-7-

- -----------------------------------------------------------------
- -----------------------------------------------------------------
- -----------------------------------------------------------------
- -7-7-7-7-7-7-7-7-7-7-7-7-7-7-7-7-7-7-7-7-7-7-7-7-7-7-7-7-x-3-----
- -0-0-0-0-0-0-0-0-0-0-0-0-0-0-0-0-8-8-8-8-8-8-8-8-8-8-8-8-x-3-----
- -0-0-0-0-0-0-0-0-0-0-0-0-0-0-0-0-8-8-8-8-8-8-5-5-5-5-5-5-x-3-----


[Riff 10a, Guitar 1 & 2] - [02:47] - [03:10] - [x2]
- -----------------------------------------------------------------
- -----------------------------------------------------------------
- -1010101010101010101010101010101010101010101010101010101010101010
- -8-8-8-8-8-8-8-8-8-8-8-8-8-8-8-8-8-8-8-8-8-8-8-8-8-8-8-8-8-8-8-8-
- -8-8-8-8-8-8-8-8-8-8-8-8-8-8-8-8-8-8-8-8-8-8-8-8-8-8-8-8-8-8-8-8-
- -8-8-8-8-8-8-8-8-8-8-8-8-8-8-8-8-8-8-8-8-8-8-8-8-8-8-8-8-8-8-8-8-
-
- -----------------------------------------------------------------
- -5-5-5-5-5-5-5-5-5-5-5-5-5-5-5-5-5-5-5-5-5-5-5-5-5-5-5-5-5-5-5-5-
- -7-7-7-7-7-7-7-7-7-7-7-7-7-7-7-7-7-7-7-7-7-7-7-7-7-7-7-7-7-7-7-7-
- -8-8-8-8-8-8-8-8-8-8-8-8-8-8-8-8-8-8-8-8-8-8-8-8-8-8-8-8-8-8-8-8-
- -----------------------------------------------------------------
- -----------------------------------------------------------------


- -----------------------------------------------------------------
- -----------------------------------------------------------------
- -2-2-2-2-2-2-2-2-2-2-2-2-2-2-2-2-2-2-2-2-2-2-2-2-2-2-2-2-2-2-2-2-
- -0-0-0-0-0-0-0-0-0-0-0-0-0-0-0-0-0-0-0-0-0-0-0-0-0-0-0-0-0-0-0-0-
- -0-0-0-0-0-0-0-0-0-0-0-0-0-0-0-0-0-0-0-0-0-0-0-0-0-0-0-0-0-0-0-0-
- -0-0-0-0-0-0-0-0-0-0-0-0-0-0-0-0-0-0-0-0-0-0-0-0-0-0-0-0-0-0-0-0-
-
- -----------------------------------------------------------------
- -6-6-6-6-6-6-6-6-6-6-6-6-6-6-6-6-6-6-6-6-6-6-6-6-6-6-6-6-6-6-6-6-
- -7-7-7-7-7-7-7-7-7-7-7-7-7-7-7-7-7-7-7-7-7-7-7-7-7-7-7-7-7-7-7-7-
- -7-7-7-7-7-7-7-7-7-7-7-7-7-7-7-7-7-7-7-7-7-7-7-7-7-7-7-7-7-7-7-7-
- -----------------------------------------------------------------
- -----------------------------------------------------------------


[Riff 10b] - [02:47] - [02:58]
   T      L     L    T    T    T    T    T      L     L    T    T    T    T
- -12p8p5------------12p5-13p5-12p5-13p5-12p8p5------------12p5-13p5-12p5-13p5-
- --------6p5h6-8/10----------------------------6p5h6-8/10---------------------
- -----------------------------------------------------------------------------
- -----------------------------------------------------------------------------
- -----------------------------------------------------------------------------
- -----------------------------------------------------------------------------

   T      L     L    T    T    T    T    T      L     L    T    T    T    T
- -12p8p5------------12p5-13p5-12p5-13p5-12p8p5------------12p5-13p5-12p5-13p5-
- --------6p5h6-8/10----------------------------6p5h6-8/10---------------------
- -----------------------------------------------------------------------------
- -----------------------------------------------------------------------------
- -----------------------------------------------------------------------------
- -----------------------------------------------------------------------------


[Riff 10c, Guitar 1 & 2] - [02:58] - [03:21]
- -----------------------------------------------------------------
- -----------------------------------------------------------------
- -1010101010101010101010101010101010101010101010101010101010------
- -8-8-8-8-8-8-8-8-8-8-8-8-8-8-8-8-8-8-8-8-8-8-8-8-8-8-8-8-8-------
- -8-8-8-8-8-8-8-8-8-8-8-8-8-8-8-8-8-8-8-8-8-8-8-8-8-8-8-8-8-------
- -8-8-8-8-8-8-8-8-8-8-8-8-8-8-8-8-8-8-8-8-8-8-8-8-8-8-8-8-8-------
-
- -----------------------------------------------------------------
- -5-5-5-5-5-5-5-5-5-5-5-5-5-5-5-5-5-5-5-5-5-5-5-5-5-5-5-5-5-------
- -7-7-7-7-7-7-7-7-7-7-7-7-7-7-7-7-7-7-7-7-7-7-7-7-7-7-7-7-7-------
- -8-8-8-8-8-8-8-8-8-8-8-8-8-8-8-8-8-8-8-8-8-8-8-8-8-8-8-8-8-------
- -----------------------------------------------------------------
- -----------------------------------------------------------------


- -----------------------------------------------------------------
- -----------------------------------------------------------------
- -2-2-2-2-2-2-2-2-2-2-2-2-2-2-2-2-2-2-2-2-2-2-2-2-5-5-5-5-5-5-5-5-
- -0-0-0-0-0-0-0-0-0-0-0-0-0-0-0-0-0-0-0-0-0-0-0-0-5-5-5-5-5-5-5-5-
- -0-0-0-0-0-0-0-0-0-0-0-0-0-0-0-0-0-0-0-0-0-0-0-0-3-3-3-3-3-3-3-3-
- -0-0-0-0-0-0-0-0-0-0-0-0-0-0-0-0-0-0-0-0-0-0-0-0-----------------
-
- -----------------------------------------------------------------
- -6-6-6-6-6-6-6-6-6-6-6-6-6-6-6-6-6-6-6-6-6-6-6-6-----------------
- -7-7-7-7-7-7-7-7-7-7-7-7-7-7-7-7-7-7-7-7-7-7-7-7-5-5-5-5-5-5-5-5-
- -7-7-7-7-7-7-7-7-7-7-7-7-7-7-7-7-7-7-7-7-7-7-7-7-5-5-5-5-5-5-5-5-
- -------------------------------------------------3-3-3-3-3-3-3-3-
- -----------------------------------------------------------------


[Riff 11, Guitar 1 & 2] - [03:21] - [04:04]
- -----------------------------------------------------------------
- -----------------------------------------------------------------
- -----------------------------------------------------------------
- -0-------------------------------0-------------------------------
- -0-------------------------------0-------------------------------
- -0-------------------------------0-------------------------------
-
- -5---0-------8-------------------5---0-------8-------------------
- ---------6-------------------------------6-----------------------
- -----------------------------------------------------------------
- -----------------------------------------------------------------
- -----------------------------------------------------------------
- -----------------------------------------------------------------


- -----------------------------------------------------------------
- -----------------------------------------------------------------
- -7-------------------------------7-------------------------------
- -5-------------------------------5-------------------------------
- -3-------------------------------3-------------------------------
- -----------------------------------------------------------------
-
- -5---0-------8-------------------5---0-------8-------------------
- ---------6-------------------------------6-----------------------
- -----------------------------------------------------------------
- -----------------------------------------------------------------
- -----------------------------------------------------------------
- -----------------------------------------------------------------


- -----------------------------------------------------------------
- -----------------------------------------------------------------
- -----------------------------------------------------------------
- -0-------------------------------0-------------------------------
- -0-------------------------------0-------------------------------
- -0-------------------------------0-------------------------------
-
- -5---0-------8-------------------5---0-------8-------------------
- ---------6-------------------------------6-----------------------
- -----------------------------------------------------------------
- -----------------------------------------------------------------
- -----------------------------------------------------------------
- -----------------------------------------------------------------


- -----------------------------------------------------------------
- -----------------------------------------------------------------
- -7-------------------------------7-------------------------------
- -5-------------------------------5-------------------------------
- -3-------------------------------3-------------------------------
- -----------------------------------------------------------------
-
- -5---0-------8-------------------5---0-------8-------------------
- ---------6-------------------------------6-----------------------
- -----------------------------------------------------------------
- -----------------------------------------------------------------
- -----------------------------------------------------------------
- -----------------------------------------------------------------


- -----------------------------------------------------------------
- -----------------------------------------------------------------
- -5-------------------------------5-------------------------------
- -3-------------------------------3-------------------------------
- -1-------------------------------1-------------------------------
- -----------------------------------------------------------------
-
- -5---0-------8-------------------5---0-------8-------------------
- ---------6-------------------------------6-----------------------
- -----------------------------------------------------------------
- -----------------------------------------------------------------
- -----------------------------------------------------------------
- -----------------------------------------------------------------


- -----------------------------------------------------------------
- -----------------------------------------------------------------
- -7-------------------------------7-------------------------------
- -5-------------------------------5-------------------------------
- -3-------------------------------3-------------------------------
- -----------------------------------------------------------------
-
- -5---0-------8-------------------5---0-------8-------------------
- ---------6-------------------------------6-----------------------
- -----------------------------------------------------------------
- -----------------------------------------------------------------
- -----------------------------------------------------------------
- -----------------------------------------------------------------


[Riff 12, Guitar 1 & 2] - [04:04] - [04:20]
- -----------------------------------------------------------------
- -----------------------------------------------------------------
- -----------------------------------------------------------------
- -----------------------------------------------------------------
- -0-----000-000-----000-000---0-0-0-----000-000-----000-0-0---0-0-
- -0-----000-000-----000-000---0-0-0-----000-000-----000-0-0---0-0-
PM ...............................................................
- -5---0-------8-------------------5---0-------8-------------------
- ---------6-------------------------------6-----------------------
- -----------------------------------------------------------------
- -----------------------------------------------------------------
- -----------------------------------------------------------------
- -----------------------------------------------------------------


- -------------------------------------------------------------------------------------------------
- -------------------------------------------------------------------------------------------------
- -------------------------------------------------------------------------------------------------
- ----------------------------------------------------------------------------------[555]----------
- -0-----000-000-----000-000---0-0-0-----000-000-----000-0-0---0-0-0-----000-000---------000-------
- -0-----000-000-----000-000---0-0-0-----000-000-----000-0-0---0-0-0-----000-000---------000--/12\-
PM .............................................................................         ...
- -5---0-------8-------------------5---0-------8---------------------------------------------------
- ---------6-------------------------------6-------------------------------------------------------
- -------------------------------------------------------------------------------------------------
- -------------------------------------------------------------------------------------------------
- -------------------------------------------------------------------------------------------------
- --------------------------------------------------------------------------------------------/12\-


[Riff 13, Guitar 1 & 2] - [04:20] - [04:48]
- -----------------------------------------------------------------------------
- -----------------------------------------------------------------------------
- -----------------------------------------------------------------------------
- -----------------------------------------------------------------------------
- -0-----000-000-----000-000---0-0-0-----000-000---12p1h5-12p3h7-12p5h8-12p3h7-
- -0-----000-000-----000-000---0-0-0-----000-000-------------------------------
PM .............................................
- -----------------------------------------------------------------------------
- -----------------------------------------------------------------------------
- -----------------------------------------------------------------------------
- -----------------------------------------------------------------------------
- -0-----000-000-----000-000---0-0-0-----000-000---12p1h5-12p3h7-12p5h8-12p3h7-
- -0-----000-000-----000-000---0-0-0-----000-000-------------------------------
PM .............................................


- -----------------------------------------------------------------------------
- -----------------------------------------------------------------------------
- -------------------------------------------------2-2-2-----------------------
- ---------------------------------------------------------------3-3-3---------
- -0-----000-000-----000-000---0-0-0-----000-000----------5-5-5---------1-1-1--
- -0-----000-000-----000-000---0-0-0-----000-000-------------------------------
PM .............................................
- -----------------------------------------------------------------------------
- -----------------------------------------------------------------------------
- -------------------------------------------------2-2-2-----------------------
- ---------------------------------------------------------------3-3-3---------
- -0-----000-000-----000-000---0-0-0-----000-000----------5-5-5----------------
- -0-----000-000-----000-000---0-0-0-----000-000------------------------2-2-2--
PM .............................................


- -----------------------------------------------------------------------------
- -----------------------------------------------------------------------------
- -----------------------------------------------------------------------------
- -----------------------------------------------------------------------------
- -0-----000-000-----000-000---0-0-0-----000-000---12p1h5-12p3h7-12p5h8-12p3h7-
- -0-----000-000-----000-000---0-0-0-----000-000-------------------------------
PM .............................................
- -----------------------------------------------------------------------------
- -----------------------------------------------------------------------------
- -----------------------------------------------------------------------------
- -----------------------------------------------------------------------------
- -0-----000-000-----000-000---0-0-0-----000-000---12p1h5-12p3h7-12p5h8-12p3h7-
- -0-----000-000-----000-000---0-0-0-----000-000-------------------------------
PM .............................................


- ---------------------------------------------------------------------------------------------
- ---------------------------------------------------------------------------------------------
- -------------------------------------------------2-2-2---------------------------------------
- -0-------------------------------------------------------------3-3-3--3------0---------------
- -0-----000-000-----000-000---0-0-0-----000-000----------5-5-5-----------4-4--0---------------
- -0-----000-000-----000-000---0-0-0-----000-000-------------------------------0---------------
PM       .......................................
- ---------------------------------------------------------------------------------------------
- ---------------------------------------------------------------------------------------------
- -------------------------------------------------2-2-2---------------------------------------
- -0-------------------------------------------------------------3-3-3--3------0---------------
- -0-----000-000-----000-000---0-0-0-----000-000----------5-5-5-----------4-4--0---------------
- -0-----000-000-----000-000---0-0-0-----000-000-------------------------------0---------------
PM       .......................................

            
Submit corrections


        Escape lessons Hard to play? Try these video lessons and learn fast Escape lessons
        
↑ Back to top | Tablatures and chords for acoustic guitar and electric guitar, ukulele, drums are parodies/interpretations of the original songs. You may use it for private study, scholarship, research or language learning purposes only