» » »

Our Last Night - Clarity Tabs

Artists:  A B C D E F G H I J K L M N O P Q R S T U V W X Y Z # 

Clarity Tabs

(ver. 1) Click to play this song!
Our Last Night
 Rating:
4/5 (4 votes)

 Clarity  lessons Tabs too difficult? Try these video lessons and learn fast
 
                Clean Guitar
0:00 

     
B||--------------------------|--------------------------|--------------------------|--------------------------|
G||-----9--8-----------9--8--|-----------9--8-----------|--9--8-----------9--8-----|--------9--8-----------9--|
D||--9--------9-----9--------|--9-----9--------9-----9--|--------9-----9--------9--|-----9--------9-----9-----|
A||--------------7-----------|-----7--------------7-----|-----------7--------------|--7--------------7--------|
E||--------------------------|--------------------------|--------------------------|--------------------------|
A||--------------------------|--------------------------|--------------------------|--------------------------|



Guitar 1
0:07
"High dive into frozen waves..."
                                                                                    
B||--------0----0--0--0-0-0-0-----|--0--0--0-0-0-0-------0----0--|
G||--------4----4--4--4-4-4-4-----|--4--4--4-4-4-4-------4----4--|
D||--------4----4--4--4-4-4-4-----|--4--4--4-4-4-4-------4----4--|
A||--------0----0--0--0-0-0-0-----|--0--0--0-0-0-0-0-0-0-0--0-0--|
E||-------------------------------|----------------0-0-0----0----|
A||--0-0-0------------------------|----------------0-0-0----0----|


|--------4----4----------------|----------------------------|
|--------6----6--------4----4--|----------------------------|
|--------6----6--6-6-6-6--6-6--|----------------------------|
|--4-4-4----4----6-6-6-6--6-6--|----------------------------|
|--4-4-4----4----4-4-4----4----|----------------------------| 
|--4-4-4----4------------------|--0-0-0-0--0-0--0--0--0--0--|


|--------0----0--0--0-0-0-0-----|--0--0--0-0-0-0-------0----0--|
|--------4----4--4--4-4-4-4-----|--4--4--4-4-4-4-------4----4--|
|--------4----4--4--4-4-4-4-----|--4--4--4-4-4-4-------4----4--|
|--------0----0--0--0-0-0-0-----|--0--0--0-0-0-0-0-0-0-0--0-0--|
|-------------------------------|----------------0-0-0----0----|
|--0-0-0------------------------|----------------0-0-0----0----|


|--------4----4----------------|---------------------------|
|--------6----6--------4----4--|----------------6----------|
|--------6----6--6-6-6-6--6-6--|----------------7----------|
|--4-4-4----4----6-6-6-6--6-6--|----------------7----------|
|--4-4-4----4----4-4-4----4----|----------------5----------|   
|--4-4-4----4------------------|--0-0-0-0--0-0-------------|     X2

    



Clean
0:37
"'Cause you are, the piece of me..."
                           
|--------------------------|--------------------------|--------9-----------------|--------9-----------------|
|--------9-----------9-----|-----8--9--------8--9-----|-----9-----9-----8--9-----|-----9-----9-----9-----8--|
|-----9-----9-----9-----9--|--9--------9--9--------9--|--9-----------9--------9--|--9-----------9-----9-----|
|--9-----------9-----------|--------------------------|--------------------------|--------------------------|
|--------------------------|--------------------------|--------------------------|--------------------------|
|--------------------------|--------------------------|--------------------------|--------------------------| X2





Guitar 1
0:52
"If our love..."
                                           
|-----------------------------|---------------------------|-------------------------|----------------------|
|-----------------------------|---------------------------|-------------------------|----------------------|
|-----------------------------|---------------------------|----------6--------------|----------------------|
|-----------------------------|-----7--7--7-7-7-----------|------7----------6s---7--|-----4--4--4-4-4------|
|--7---7---7------------------|---------------------------|--9----------7-----------|----------------------|
|-----------------------------|---------------------------|-------------------------|----------------------|

Guitar 1

|-----------------------------|---------------------------|--4--4--4--4--4--4--4--4--|--4\-----------------|
|-----------------------------|---------------------------|--6--6--6--6--6--6--6--6--|--6\-----------------|
|-----------------------------|---------------------------|--6--6--6--6--6--6--6--6--|--6\-----------------|
|-----------------------------|-----7--7--7-7-7-----------|--4--4--4--4--4--4--4--4--|--4\-----------------|
|--7---7---7------------------|---------------------------|--4--4--4--4--4--4--4--4--|--4\-----------------|
|-----------------------------|---------------------------|--------------------------|---------------------|


Guitar 2
0:52
"If our love..."

|-----------------------------|---------------------------|-------------------------|---------------------|
|-----------------------------|---------------------------|-------------------------|---------------------|
|-----------------------------|---------------------------|----------6--------------|---------------------|
|-----------------------------|---------------------------|------7----------6s---7--|---------------------|
|-----------------------------|-----7--7--7-7-7-----------|--9----------7-----------|-----5--5--5-5-5-----|
|--9---9---9------------------|---------------------------|-------------------------|---------------------|

Guitar 2

|-----------------------------|---------------------------|--4--4--4--4--4--4--4--4--|--4\-----------------|
|-----------------------------|---------------------------|--6--6--6--6--6--6--6--6--|--6\-----------------|
|-----------------------------|---------------------------|--6--6--6--6--6--6--6--6--|--6\-----------------|
|-----------------------------|---------------------------|--4--4--4--4--4--4--4--4--|--4\-----------------|
|-----------------------------|-----7--7--7-7-7-----------|--4--4--4--4--4--4--4--4--|--4\-----------------|
|--9---9---9------------------|---------------------------|--------------------------|---------------------|


Solo
1:07
 
   T        T        T        T           T        T        T        T
|--19-0-4-5-19-0-4-5-19-0-4-5-19-0-4-5-|--16-0-4-5-16-0-4-5-16-0-4-5-16-0-4-5-|
|--------------------------------------|--------------------------------------|
|--------------------------------------|--------------------------------------|
|--------------------------------------|--------------------------------------|
|--------------------------------------|--------------------------------------|
|--------------------------------------|--------------------------------------|


   T        T        T        T           T        T        T        T
|--17-0-4-5-17-0-4-5-12-0-4-5-12-0-4-5-|--14-0-4-5-14-0-4-5-14-0-4-5-14-0-4-5-|
|--------------------------------------|--------------------------------------|
|--------------------------------------|--------------------------------------|
|--------------------------------------|--------------------------------------|
|--------------------------------------|--------------------------------------|
|--------------------------------------|--------------------------------------|
  

  T        T        T        T           T        T        T        T  
|--19-0-4-5-19-0-4-5-19-0-4-5-19-0-4-5-|--16-0-4-5-16-0-4-5-16-0-4-5-16-0-4-5-|
|--------------------------------------|--------------------------------------|
|--------------------------------------|--------------------------------------|
|--------------------------------------|--------------------------------------|
|--------------------------------------|--------------------------------------|
|--------------------------------------|--------------------------------------|

   T        T        T        T           T        T        T        T
|--17-0-4-5-17-0-4-5-12-0-4-5-12-0-4-5-|--14-0-4-5-14-0-4-5-14-0-4-5-12-0-4-5-|
|--------------------------------------|--------------------------------------|
|--------------------------------------|--------------------------------------|
|--------------------------------------|--------------------------------------|
|--------------------------------------|--------------------------------------|
|--------------------------------------|--------------------------------------|

Chorus
1:23
"If our love..."

  
|--------------------------|--------------------------|
|--------------------------|--------------------------|
|--------------------------|--9--9--9--9--9--9--9--9--|
|--9--9--9--9--9--9--9--9--|--9--9--9--9--9--9--9--9--|
|--9--9--9--9--9--9--9--9--|--7--7--7--7--7--7--7--7--|
|--9--9--9--9--9--9--9--9--|--------------------------|

  
|--------------------------|--------------------------|
|--------------------------|--6--6--6--6--6--6--6--6--|
|--------------6--6--6--6--|--7--7--7--7--7--7--7--7--|
|--4--4--4--4--6--6--6--6--|--7--7--7--7--7--7--7--7--|
|--4--4--4--4--4--4--4--4--|--5--5--5--5--5--5--5--5--|
|--4--4--4--4--------------|--------------------------|

   
|--------------------------|--------------------------|
|--------------------------|--------------------------|
|--------------------------|--9--9--9--9--9--9--9--9--|
|--9--9--9--9--9--9--9--9--|--9--9--9--9--9--9--9--9--|
|--9--9--9--9--9--9--9--9--|--7--7--7--7--7--7--7--7--|
|--9--9--9--9--9--9--9--9--|--------------------------|

             
|--------------------------|--------------------------|-------------------|
|--------------------------|--------------------------|-------------------|
|--------------------------|--------------------------|--9----------------|
|--4--4--4--4--4--4--4--4--|--4--4--4--4--4--4--4--4--|--7----------------|
|--4--4--4--4--4--4--4--4--|--4--4--4--4--4--4--4--4--|--5----------------|
|--4--4--4--4--4--4--4--4--|--4--4--4--4--4--4--4--4--|--0----------------|


1:42
"Walk on through a red parade..."

|-------------------|-----------------------|--------------------------|
|-------------------|-----------------------|--------------------------|
|-------------------|-----------------------|--------------------------|
|-------------------|--------------0--0--0--|--0-----------------------|
|-------------------|--------------0--0--0--|--0-----------------------|
|-------------------|--------------0--0--0--|--0-----------------------|



1:57
"Don't speak as I try to leave..."

                                                                               
      
B||--------0----0--0--0-0-0-0-----|--0--0--0-0-0-0-------0----0--|
G||--------4----4--4--4-4-4-4-----|--4--4--4-4-4-4-------4----4--|
D||--------4----4--4--4-4-4-4-----|--4--4--4-4-4-4-------4----4--|
A||--------0----0--0--0-0-0-0-----|--0--0--0-0-0-0-0-0-0-0--0-0--|
E||-------------------------------|----------------0-0-0----0----|
A||--0-0-0------------------------|----------------0-0-0----0----|


|--------4----4----------------|----------------------------|
|--------6----6--------4----4--|----------------------------|
|--------6----6--6-6-6-6--6-6--|----------------------------|
|--4-4-4----4----6-6-6-6--6-6--|----------------------------|
|--4-4-4----4----4-4-4----4----|----------------------------| 
|--4-4-4----4------------------|--0-0-0-0--0-0--0--0--0--0--|


|--------0----0--0--0-0-0-0-----|--0--0--0-0-0-0-------0----0--|
|--------4----4--4--4-4-4-4-----|--4--4--4-4-4-4-------4----4--|
|--------4----4--4--4-4-4-4-----|--4--4--4-4-4-4-------4----4--|
|--------0----0--0--0-0-0-0-----|--0--0--0-0-0-0-0-0-0-0--0-0--|
|-------------------------------|----------------0-0-0----0----|
|--0-0-0------------------------|----------------0-0-0----0----|


|--------4----4----------------|---------------------------|
|--------6----6--------4----4--|----------------6----------|
|--------6----6--6-6-6-6--6-6--|----------------7----------|
|--4-4-4----4----6-6-6-6--6-6--|----------------7----------|
|--4-4-4----4----4-4-4----4----|----------------5----------|   
|--4-4-4----4------------------|--0-0-0-0--0-0-------------|     

2:12
"'Cause you are, the piece of me..."

 T           T           T           T   
|19-17-16-17-19-17-16-17-19-17-16-17-19-17-16-17|
|-----------------------------------------------|
|-----------------------------------------------|
|-----------------------------------------------|   X8
|-----------------------------------------------|
|-----------------------------------------------|

      

Chorus
2:27
"If our love, is tragedy..."


|--------------------------|--------------------------|
|--------------------------|--------------------------|
|--------------------------|--9--9--9--9--9--9--9--9--|
|--9--9--9--9--9--9--9--9--|--9--9--9--9--9--9--9--9--|
|--9--9--9--9--9--9--9--9--|--7--7--7--7--7--7--7--7--|
|--9--9--9--9--9--9--9--9--|--------------------------|


 
|--------------------------|--------------------------|
|--------------------------|--6--6--6--6--6--6--6--6--|
|--------------6--6--6--6--|--7--7--7--7--7--7--7--7--|
|--4--4--4--4--6--6--6--6--|--7--7--7--7--7--7--7--7--|
|--4--4--4--4--4--4--4--4--|--5--5--5--5--5--5--5--5--|
|--4--4--4--4--------------|--------------------------|


   
|--------------------------|--------------------------|
|--------------------------|--------------------------|
|--------------------------|--9--9--9--9--9--9--9--9--|
|--9--9--9--9--9--9--9--9--|--9--9--9--9--9--9--9--9--|
|--9--9--9--9--9--9--9--9--|--7--7--7--7--7--7--7--7--|
|--9--9--9--9--9--9--9--9--|--------------------------|


 E   
|--------------------------|--------------------------|
|--------------------------|--6--6--6--6--6--6--6--6--|
|--------------6--6--6--6--|--7--7--7--7--7--7--7--7--|
|--4--4--4--4--6--6--6--6--|--7--7--7--7--7--7--7--7--|
|--4--4--4--4--4--4--4--4--|--5--5--5--5--5--5--5--5--|
|--4--4--4--4--------------|--------------------------|

2:42

|-------------------|-------------------|--------------------------|
|--6----------------|--L----------------|--------------------------|
|--7----------------|--L----------------|--------------------------|
|--7----------------|--L----------------|--------------------------|
|--5----------------|--L----------------|--------------------------|
|-------------------|-------------------|--2--2--2--2--2--2--2--2--|


       
|--------------------------|--------------------------|-----|
|--------------------------|--------------------------|-----|
|--------------------------|--------------------------|-----|
|--------------------------|--2--2--2--2--2--2--2--2--|-----|
|--2--2--2--2--2--2--2--2--|--2--2--2--2--2--2--2--2--|-----|
|--2--2--2--2--2--2--2--2--|--2--2--2--2--2--2--2--2--|-----|


                                                  
Breakdown
2:57
"My clarity!"
                                                PM PM    PM  
|-----------------------------|--------------------------------|
|-----------------------------|--------------------------------|
|-----------------------------|--------------------------------|
|--2-4-4--4--4--2-4-4-4--4-4--|--2-4-4--4--4--2----------------|
|--2-4-4--4--4--2-4-4-4--4-4--|--2-4-4--4--4--2----------------|
|--2-4-4--4--4--2-4-4-4--4-4--|--2-4-4--4--4--2-4--4--4--4--5--|

  
                                           PM           
         
|-----------------------------|---------------4--------|
|-----------------------------|---------------6--------|
|-----------------------------|---------------6--------|
|--2-4-4--4--4--2-4-4-4--4-4--|--2-4-4--4--0--4--------|
|--2-4-4--4--4--2-4-4-4--4-4--|--2-4-4--4--0-----------|
|--2-4-4--4--4--2-4-4-4--4-4--|--2-4-4--4--0-----------|


                                                PM PM    PM     
  
|-----------------------------|--------------------------------|
|-----------------------------|--------------------------------|
|-----------------------------|--------------------------------|
|--2-4-4--4--4--2-4-4-4--4-4--|--2-4-4--4--4--2----------------|
|--2-4-4--4--4--2-4-4-4--4-4--|--2-4-4--4--4--2----------------|
|--2-4-4--4--4--2-4-4-4--4-4--|--2-4-4--4--4--2-4--4--4--4--4--|


Guitar 1
 3:08
"Why are you my clarity..."              
|--------------------------|--------------------------|-------------------|
|--------------------------|--------------------------|-------------------|
|--------------------------|--------------------------|--9----------------|
|--4--4--4--4--4--4--4--4--|--4-----------------------|--7----------------|
|--------------------------|--------------------------|--5----------------|
|--------------------------|--------------------------|--0----------------|

Guitar 2
3:08
"Why are you my clarity..."
               
|--------------------------|--------------------------|-------------------|
|--------------------------|--------------------------|-------------------|
|--------------------------|--------------------------|--9----------------|
|--------------------------|--------------------------|--7----------------|
|--5--5--5--5--5--5--5--5--|--5-----------------------|--5----------------|
|--------------------------|--------------------------|--0----------------|

Clean
3:12 

|--------------------------|--------------------------|--------------------------|--------------------------|
|-----9--8-----------9--8--|-----------9--8-----------|--9--8-----------9--8-----|--------9--8-----------9--|
|--9--------9-----9--------|--9-----9--------9-----9--|--------9-----9--------9--|-----9--------9-----9-----|
|--------------7-----------|-----7--------------7-----|-----------7--------------|--7--------------7--------|
|--------------------------|--------------------------|--------------------------|--------------------------|
|--------------------------|--------------------------|--------------------------|--------------------------|
            
Submit corrections


        Clarity  lessons Hard to play? Try these video lessons and learn fast Clarity  lessons
        
↑ Back to top | Tablatures and chords for acoustic guitar and electric guitar, ukulele, drums are parodies/interpretations of the original songs. You may use it for private study, scholarship, research or language learning purposes only