» » »

Our Last Night - Age Of Ignorance Tabs

Artists:  A B C D E F G H I J K L M N O P Q R S T U V W X Y Z # 

Age Of Ignorance Tabs

(ver. 1) Click to play this song!
Our Last Night
 Rating:
4/5 (4 votes)

 Age Of Ignorance lessons Tabs too difficult? Try these video lessons and learn fast
 
                --------------------------------------------------------------------------
--------------------------------------------------------------------------
This is the only song I know of Our Last Night so I'm not familiar with their playing
style. If you have any corrections or additions, please comment!

Tuning: Drop C (CGCFAD)

*Verse 1*:
(Listen to the song for the rhythm)
Guitar 1 (LFT): plays the same thing until the *Pre-Chorus* @0:44
D|-------------------------------------------------------------------------|
A|-------------------------------------------------------------------------|
F|-9-----------------------------------------------------------------------|
C|-x-----------------------------------------------------------------------|
G|-7-----------------------------------------------------------------------|
C|-------------------------------------------------------------------------|

Guitar 2 (RHT): comes in @0:20 (ooah) and plays the same thing until the *Pre-Chorus* @0:44
D|-------------------------------------------------------------------------|
A|-8-----------------------------------------------------------------------|
F|-x-----------------------------------------------------------------------|
C|-5-----------------------------------------------------------------------|
G|-------------------------------------------------------------------------|
C|-------------------------------------------------------------------------|

-'ooah' part is played on piano. X2
D|-------------------------------------------------------------------------|
A|-----15-12---------12----------------------------------------------------|
F|-------------12-14----14-------------------------------------------------|
C|--14---------------------------------------------------------------------|
G|-------------------------------------------------------------------------|
C|-------------------------------------------------------------------------|



*Chorus*: @0:48
Guitar 1:
          F5                C5                G5
D|---------------------------------------------------------------|
A|---------------------------------------------------------------|
F|--------------------------------------------22222222-22222222--|
C|-xxxxxx-55555555-55555555-00000000-00000000-22222222-22222222--|
G|-xxxxxx-55555555-55555555-00000000-00000000-00000000-00000000--|
C|-xxxxxx-55555555-55555555-00000000-00000000--------------------|

   D5       C5         D5
D|-------------------|-----------------------------------------------------|
A|-------------------|-----------------------------------------------------|
F|-------------------|-----------------------------------------------------|
C|-22222222-00000000-|-2-2-2--2-2-2----------------------------------------|
G|-22222222-00000000-|-2-2-2--2-2-2----------------------------------------|
C|-22222222-00000000-|-2-2-2--2-2-2----------------------------------------|

Guitar 2: 8th notes.  pick each note as you hear it in the song.
D|-15-----19--15--14----17-19-20-19-17--15-17-19-17-15---------------------|
A|-----15------------15----------------------------------------------------|
F|-------------------------------------------------------------------------|
C|-------------------------------------------------------------------------|
G|-------------------------------------------------------------------------|
C|-------------------------------------------------------------------------|

*Verse 2*:
-"ooah" part. Both guitars play the same thing until the *Verse* kicks in @1:16
They come back @1:33

-'ooah' part is played on piano. X2
D|-------------------------------------------------------------------------|
A|-----15-12---------12----------------------------------------------------|
F|-------------12-14----14-------------------------------------------------|
C|--14---------------------------------------------------------------------|
G|-------------------------------------------------------------------------|
C|-------------------------------------------------------------------------|

(Listen to the song for the rhythm)
Guitar 1 (LFT):
D|-------------------------------------------------------------------------|
A|-------------------------------------------------------------------------|
F|-9-----------------------------------------------------------------------|
C|-x-----------------------------------------------------------------------|
G|-7-----------------------------------------------------------------------|
C|-------------------------------------------------------------------------|

Guitar 2 (RHT):
D|-------------------------------------------------------------------------|
A|-8-----------------------------------------------------------------------|
F|-x-----------------------------------------------------------------------|
C|-5-----------------------------------------------------------------------|
G|-------------------------------------------------------------------------|
C|-------------------------------------------------------------------------|

-verse. Only guitar 2 plays, until @1:40

Dm---Gm-Bb (I'm not 100% sure about the chords here. Chords shapes are Em, Am, and C)

         Dm
They can cure this cancer in the simplest of ways,
        Gm                              Bb
but the longer we're sick, the more the doctor gets paid.
    Dm
The longer we wait, to get out of these days,
    Gm                         Bb
the shorter we'll live and the faster we'll decay.
Dm                            Gm                      Bb
  This is the age of ignorance. It is a sickness that brings us to the end.

*Chorus*: @1:45
Guitar 1:
          F5                C5                G5
D|---------------------------------------------------------------|
A|---------------------------------------------------------------|
F|--------------------------------------------22222222-22222222--|
C|-xxxxxx-55555555-55555555-00000000-00000000-22222222-22222222--|
G|-xxxxxx-55555555-55555555-00000000-00000000-00000000-00000000--|
C|-xxxxxx-55555555-55555555-00000000-00000000--------------------|

   D5       C5         D5             C5                     PM
D|-------------------|--------------|--------------------------------------|
A|-------------------|--------------|--------------------------------------|
F|-------------------|--------------|--------------------------------------|
C|-22222222-00000000-|-2-2-2--2-2-2-|-0-0-0--0-0-0--0-0-0--0-0-0-----------|
G|-22222222-00000000-|-2-2-2--2-2-2-|-0-0-0--0-0-0--0-0-0--0-0-0-----------|
C|-22222222-00000000-|-2-2-2--2-2-2-|-0-0-0--0-0-0--0-0-0--0-0-0-----------|

Guitar 2: 8th notes.  pick each note as you hear it in the song.
D|-15-----19--15--14----17-19-20-19-17--15-17-19-17-15---|
A|-----15------------15----------------------------------|
F|-------------------------------------------------------|
C|-------------------------------------------------------|
G|-------------------------------------------------------|
C|-------------------------------------------------------|

(over the C5)
D|-------------------------------------------------------------------------|
A|-7-7-7--7-7-7--7-7-7--7-7-7--7-7-8---------------------------------------|
F|-x-x-x--x-x-x--x-x-x--x-x-x--x-x-x---------------------------------------|
C|-4-4-4--4-4-4--4-4-4--4-4-4--4-4-5---------------------------------------|
G|-------------------------------------------------------------------------|
C|-------------------------------------------------------------------------|

*Bridge*: @2:08
Guitar 1:
   Bb5      F/A5     F5       G5  End 2nd time instead of G5:
D|-------------------------------------|---------------------|--------------|
A|-------------------------------------|---------------------|--------------|
F|-55555555-44444444----------22222222-|---------------------|--------------|
C|-55555555-55555555-55555555-22222222-|-33333333-33333333---|--2~~~~-------|
G|-33333333-22222222-55555555-00000000-|-33333333-33333333---|--2~~~~-------|
C|-------------------55555555----------|-33333333-33333333---|--2~~~~-------|

Guitar 2: They're 8th notes. This part isn't perfect, but it's close enough.
each octave represents 4 8th notes. pick accordingly to song.
D|-------------------------------------------------------------------------|
A|-8-10-12-10-5-8--12--10--13-12-8-----------------------------------------|
F|-x-x--x--x--x-x--x---x---x--x--x-----------------------------------------|
C|-5-7--9--7--2-5--9---7---10-9--5-----------------------------------------|
G|-------------------------------------------------------------------------|
C|-------------------------------------------------------------------------|

*-"ooah" part. @2:26
(Listen to the song for the rhythm)
Guitar 1 (LFT):
D|-------------------------------------------------------------------------|
A|-------------------------------------------------------------------------|
F|-9-----------------------------------------------------------------------|
C|-x-----------------------------------------------------------------------|
G|-7-----------------------------------------------------------------------|
C|-------------------------------------------------------------------------|

Guitar 2 (RHT): comes in @2:30 until @2:34
D|-------------------------------------------------------------------------|
A|-8-----------------------------------------------------------------------|
F|-x-----------------------------------------------------------------------|
C|-5-----------------------------------------------------------------------|
G|-------------------------------------------------------------------------|
C|-------------------------------------------------------------------------|

*Guitar Solo*: @2:42
Guitar 1 (LFT):
   F5                C5                G5                Bb5      C5
D|-------------------------------------------------------------------------|
A|-------------------------------------------------------------------------|
F|-------------------------------------22222222-22222222-55555555-77777777-|
C|-55555555-55555555-00000000-00000000-22222222-22222222-55555555-77777777-|
G|-55555555-55555555-00000000-00000000-00000000-00000000-33333333-55555555-|
C|-55555555-55555555-00000000-00000000-------------------------------------|

Guitar 2 (RHT):
D|--------------------------------------------------------------------|
A|-----------------------------------------------------------13-12----|
F|-4/9---11-12--14-12--11-11---12--11-11---9----11-9-11-12-14---------|
C|--------------------------------------------------------------------|
G|--------------------------------------------------------------------|
C|--------------------------------------------------------------------|

D|-17-15-14-12-15----------------------------------------------------------|
A|-------------------------------------------------------------------------|
F|-------------------------------------------------------------------------|
C|-------------------------------------------------------------------------|
G|-------------------------------------------------------------------------|
C|-------------------------------------------------------------------------|

*Final Chorus*:
Guitar 1 (LFT): They're all 16th notes. Each note represents 2 strokes.
D|-------------------------------------------------------------------------|
A|-------------------------------------------------------------------------|
F|-------------------------------------------------------------------------|
C|-------------------------------------------------------------------------|
G|-----------------------------------0000000000000000-3333333355555555-----|
C|-5555555555555555-0000000000000000---------------------------------------|

D|-------------------------------------------------------------------------|
A|-------------------------------------------------------------------------|
F|----------------------------------------------------55555555-------------|
C|----------------------------------------------------5555555500000000-5~~~|
G|-----------------------------------0000000000000000-3333333300000000-5~~~|
C|-5555555555555555-0000000000000000--------------------------00000000-5~~~|

Guitar 2: 8th notes.  pick each note as you hear it in the song.
D|-15-----19--15--14----17-19-20-19-17--15-17-19-20-19----|
A|-----15------------15-----------------------------------|
F|--------------------------------------------------------|
C|--------------------------------------------------------|
G|--------------------------------------------------------|
C|--------------------------------------------------------|

D|-15-----19--15--14----17-19-20-19-17--15-17-19-17-15~~~------------|
A|-----15------------15----------------------------------------------|
F|-------------------------------------------------------------------|
C|-------------------------------------------------------------------|
G|-------------------------------------------------------------------|
C|-------------------------------------------------------------------|

*Note on the 'ooah' piano parts. The vocals sing the higher C while the piano plays the 
lower C, below D, the starting note. I prefer playing the higher C.

************************************

| /   slide up
| \   slide down
| h   hammer-on
| p   pull-off
| ~   vibrato
| +   harmonic
| x   Mute note
| b   Bend
| pb  Pre-bend
| br  Bend release
| pbr Pre-bend release
| brb Bend release bend

************************************
            
Submit corrections


        Age Of Ignorance lessons Hard to play? Try these video lessons and learn fast Age Of Ignorance lessons
        
↑ Back to top | Tablatures and chords for acoustic guitar and electric guitar, ukulele, drums are parodies/interpretations of the original songs. You may use it for private study, scholarship, research or language learning purposes only