Home » O » Otis Redding »

Otis Redding - Ton Of Joy Tabs

Artists:  A B C D E F G H I J K L M N O P Q R S T U V W X Y Z # 

Ton Of Joy Tabs

(ver. 1) Click to play this song!
Otis Redding
 Rating:
4.3/5 (13 votes)
                Gtr I (E A D G) - 'Donald "Duck" Dunn - Bass'

 [Intro]
 Q=97
  Gtr I
   Q.   E H      Q.   E H      Q.   E H      Q.   E H
G|-------------|-------------|-------------|-------------||
D|-------------|-------------|-------------|-------------||
A|-------------|-------------|-------------|-------------||
E|-0----0-5----|-0----0-5----|-0----0-5----|-0----0-5----||


  [1st Verse]
     Q.   E H      Q.   E H      Q.   E H      Q.   E H
G||--------------|-------------|-------------|--------------||
D||o-------------|-------------|-------------|-------------o||
A||o-------------|-------------|-------------|-------------o||
E||--0----0-5----|-0----0-5----|-0----0-5----|-0----0-5-----||


   Q.   E Q.   E   Q.   E Q.   E   Q  Q  Q  Q    W
G|---------------|---------------|-------------|------||
D|---------------|---------------|-------------|------||
A|---------------|---------------|-------------|------||
E|-7----7-7----7-|-7----7-7----7-|-5--5--5--5--|------||


  [2nd Verse]
     Q.   E H      Q.   E H      Q.   E H      Q.   E H     4x
G||--------------|-------------|-------------|--------------||
D||o-------------|-------------|-------------|-------------o||
A||o-------------|-------------|-------------|-------------o||
E||--0----0-5----|-0----0-5----|-0----0-5----|-0----0-5-----||


   Q.   E Q.   E   Q.   E Q.   E   Q  Q  Q  Q    W
G|---------------|---------------|-------------|------||
D|---------------|---------------|-------------|------||
A|---------------|---------------|-------------|------||
E|-7----7-7----7-|-7----7-7----7-|-5--5--5--5--|------||


  [3rd Verse]
     Q.   E H      Q.   E H     3x Q.   E H      Q.   E Q  S S E
G||--------------|--------------||-------------|------------------|
D||o-------------|-------------o||-------------|------------------|
A||o-------------|-------------o||-------------|-----------4------|
E||--0----0-5----|-0----0-5-----||-0----0-5----|-0----0-5----5-6--|


   Q.   E Q.   E   Q.   E Q.   E   Q  E E Q  Q    W
G|---------------|---------------|--------------|------||
D|---------------|---------------|--------------|------||
A|---------------|---------------|--------------|------||
E|-7----7-7----7-|-7----7-7----7-|-5--5-5-5--5--|------||


  [Outro]
     Q.   E H      Q.   E H      Q.   E H      Q.   E H     4x
G||--------------|-------------|-------------|--------------||
D||o-------------|-------------|-------------|-------------o||
A||o-------------|-------------|-------------|-------------o||
E||--0----0-5----|-0----0-5----|-0----0-5----|-0----0-5-----||

            
Submit corrections

↑ Back to top | Tablatures and chords for acoustic guitar and electric guitar, ukulele, drums are parodies/interpretations of the original songs. You may use it for private study, scholarship, research or language learning purposes only