Home » O » Otis Redding »

Otis Redding - Sad Song Fa Fa Fa Fa Fa Tabs

Artists:  A B C D E F G H I J K L M N O P Q R S T U V W X Y Z # 

Sad Song Fa Fa Fa Fa Fa Tabs

(ver. 1) Click to play this song!
Otis Redding
 Rating:
4/5 (4 votes)
                Gtr I (E A D G B E) - 'Steve Cropper - Electric Guitar'
Gtr II (E A D G B E) - 'The Memphis Horns - Horns'


 Intro
  Q=98
  Bb
 4/4
  Gtr I (El. Gtr.)
   E E  E E  E E  E E    E E  E E  E E  E E
|---------------------|---------------------|
|---------------------|---------------------|
|--7-7--7-7--7-7--7-7-|--7-7--7-7--7-7--7-7-|
|--8-8--8-8--8-8--8-8-|--8-8--8-8--8-8--8-8-|
|--8-8--8-8--8-8--8-8-|--8-8--8-8--8-8--8-8-|
|--6-6--6-6--6-6--6-6-|--6-6--6-6--6-6--6-6-|
|
| Gtr II (Horns arr. for Gtr.)
|  Q    Q    Q    Q      Q    Q    Q    e E
|-10------------------|-10------------------|
|------11--------11---|------11--------11---|
|-----------10--------|-----------10--------|
|---------------------|---------------------|
|---------------------|---------------------|
|---------------------|---------------------|


  G                 G7      G    G7    G
   E E  E E  E E  E E   +E  E  E E +E   Q  E
|---------------------|----------------------||
|---------------------|----------------------||
|--4-4--4-4--4-4--4-4-|-(4)-4--4-4-(4)--4----||
|--5-5--5-5--5-5--5-3-|-(3)-5--5-3-(3)--5----||
|--5-5--5-5--5-5--5-5-|-(5)-5--5-5-(5)--5----||
|--3-3--3-3--3-3--3-3-|-(3)-3--3-3-(3)--3----||
|
|  Q    Q    Q    Q      Q     Q    e   Q  E
|-10------------------|-10-------------------||
|------12--------12---|-------12-------12----||
|-----------10--------|------------10--------||
|---------------------|----------------------||
|---------------------|----------------------||
|---------------------|----------------------||


 Chorus
  Bb                           Eb/BBb               EbEb6 Bb
  Q  E E Q  E E   Q.   E +Q.   E   Q.   E +Q.   E   E E E E +H
|---------------|----------------|----------------|---8------------|
|---------------|--------------8-|----------------|-8-8------------|
|-7--x-7-7--x-7-|-7----7-(7)---8-|-7----7-(7)---7-|-8-8---7-(7)----|
|-8--x-8-8--x-8-|-8----8-(8)---8-|-8----8-(8)---8-|-8-8---8-(8)----|
|-8--x-8-8--x-8-|-8----8-(8)-----|-8----8-(8)---8-|-6-6---8-(8)----|
|-6--x-6-6--x-6-|-6----6-(6)---6-|-6----6-(6)---6-|-------6-(6)----|


                                                      Eb6   Bb       A
  Q  E E +Q   E E   +Q   E E +H       Q  E E Q.   E   E E E E +Q   E e
|-----------------|-----------------|---------------|-8-8---------------|
|-----------------|-----------------|---------------|-8-8---------------|
|----7-7-(7)--7-7-|-(7)--7-7-(7)----|-7--7-7-7----7-|-8-8---7-(7)----6--|
|----8-8-(8)--8-8-|-(8)--8-8-(8)----|-8--8-8-8----8-|-8-8---8-(8)----7--|
|----8-8-(8)--8-8-|-(8)--8-8-(8)----|-8--8-8-8----8-|-6-6---8-(8)----7--|
|----6-6-(6)--6-6-|-(6)--6-6-(6)----|-6--6-6-6----6-|-------6-(6)----5--|


     Bb                                                     Eb6  Bb
  Q  E E +Q   E E   +Q   E E +Q   E E   +Q   E E +Q   E E   Q  E E +H
|-----------------|-------------------|-------------------|-8-------------||
|-----------------|-------------------|-------------------|-8-------------||
|----x-7-(7)--7-7-|-(7)--x-7-(7)--x-7-|-(7)--x-7-(7)--x---|-8----7-(7)----||
|----x-8-(8)--8-8-|-(8)--x-8-(8)--x-8-|-(8)--x-8-(8)--x---|-8----8-(8)----||
|----x-8-(8)--8-8-|-(8)--x-8-(8)--x-8-|-(8)--x-8-(8)--x---|-6----8-(8)----||
|----x-6-(6)--6-6-|-(6)--x-6-(6)--x-6-|-(6)--x-6-(6)--x---|------6-(6)----||


 1st & 2nd Verses
  $
     Bb             F                 Eb                     Bb            A
  Q  E E +Q   e E    Q  E  E  +Q    E E   Q  e E +E  E e E   E E E E +Q.   e
|-----------------|---------------------|------------------|------------------|
|-----------------|-10--x-10-(10)--10-8-|-8--8-8-(8)-8-8---|------------------|
|----x-7-(7)--7---|-10--x-10-(10)--10-8-|-8--8-8-(8)-8-8---|-7-7-7-7-(7)---6--|
|----x-8-(8)--8---|-10--x-10-(10)--10-8-|-8--8-8-(8)-8-8---|-8-8-8-8-(8)---7--|
|----x-8-(8)--8---|--8--x--8--(8)---8-6-|-6--6-6-(6)-6-6---|-8-8-8-8-(8)---7--|
|----x-6-(6)--6---|---------------------|------------------|-6-6-6-6-(6)---5--|


                    F
  Q  e E +Q   e E    Q  E  E  +E   E  e E
|-----------------|-----------------------|
|-----------------|-10--x-10-(10)-10-10---|
|----7-7-(7)--7---|-10--x-10-(10)-10-10---|
|----8-8-(8)--8---|-10--x-10-(10)-10-10---|
|----8-8-(8)--8---|--8--x--8--(8)--8--8---|
|----6-6-(6)--6---|-----------------------|


  Eb                Bb
  Q  E E +Q   e E   Q  E E +Q   e e
|-----------------|------------------||
|-8--x-8-(8)--8---|------------------||
|-8--x-8-(8)--8---|-7--7-7-(7)--7-7--||
|-8--x-8-(8)--8---|-8--8-8-(8)--8-8--||
|-6--x-6-(6)--6---|-8--8-8-(8)--8-8--||
|-----------------|-6--6-6-(6)--6-6--||


 Chorus
                                              To Coda
     Bb                          A   Bb                 Eb6   Bb      A
  Q  e E Q  e E   Q  e E +E  E E E   Q  e E +Q   e e    E e E E +Q.   e
|---------------|------------------|------------------|-8-8-------------|
|---------------|------------------|------------------|-8-8-------------|
|----7-7-7--7-7-|-7--7-7-(7)-7-7-6-|-7--7-7-(7)--7-7--|-8-8---7-(7)---6-|
|----8-8-8--8-8-|-8--8-8-(8)-8-8-7-|-8--8-8-(8)--8-8--|-8-8---8-(8)---7-|
|----8-8-8--8-8-|-8--8-8-(8)-8-8-7-|-8--8-8-(8)--8-8--|-6-6---8-(8)---7-|
|----6-6-6--6-6-|-6--6-6-(6)-6-6-5-|-6--6-6-(6)--6-6--|-------6-(6)---5-|


                                                           D.S. al Coda
  Bb                                                   Eb6           A
  Q  E E Q  +E  E   Q.   E +E  E E E   Q  e E Q  e e   E e E E +Q.   e
|-----------------|------------------|---------------|-8-8---8-(8)------||
|-----------------|------------------|---------------|-8-8---8-(8)------||
|-7--x-7-7--(7)-7-|-7----7-(7)-7-7-7-|-7--7-7-7--7-7-|-8-8---8-(8)---6--||
|-8--x-8-8--(8)-8-|-8----8-(8)-8-8-8-|-8--8-8-8--8-8-|-8-8---8-(8)---7--||
|-8--x-8-8--(8)-8-|-8----8-(8)-8-8-8-|-8--8-8-8--8-8-|-6-6---6-(6)---7--||
|-6--x-6-6--(6)-6-|-6----6-(6)-6-6-6-|-6--6-6-6--6-6-|---------------5--||


                    Bridge
  &
  Eb6   Bb      A       Bb  F           Bb     Eb6      Bb     F
  E e E E +Q.   e    Q  E E  Q   E  E   Q  e E Q  e E   Q  e E  Q   e E
|-8-8-------------||------------------|--------8--8---|------------------|
|-8-8-------------||--------10--10-10-|--------8--8---|--------10--10----|
|-8-8---7-(7)---6-||----7-7-10--10-10-|-7--7---8--8---|-7--7---10--10----|
|-8-8---8-(8)---7-||----8-8-10--10-10-|-8--8---8--8---|-8--8---10--10----|
|-6-6---8-(8)---7-||----8-8--8---8--8-|-8--8---6--6---|-8--8----8---8----|
|-------6-(6)---5-||----6-6-----------|-6--6----------|-6--6-------------|


  Bb     Eb6      Bb     F          Bb     Eb6     Bb     F
  Q  e E Q  e e   Q  E e  Q   e E   Q  e E Q  q    Q  e E  Q   q
|--------8--8-8-|-----------------|--------8--8--|-----------------|
|--------8--8-8-|--------10--10---|--------8--8--|--------10--10---|
|-7--7---8--8-8-|-7--7-7-10--10---|-7--7---8--8--|-7--7---10--10---|
|-8--8---8--8-8-|-8--8-8-10--10---|-8--8---8--8--|-8--8---10--10---|
|-8--8---6--6-6-|-8--8-8--8---8---|-8--8---6--6--|-8--8----8---8---|
|-6--6----------|-6--6-6----------|-6--6---------|-6--6------------|


                 Interlude
  Bb     Eb6      Bb
  Q  e E Q  q      Q   e E  Q   e E    Q   e E  Q   e E
|--------8--8--||-------------------|-------------------|
|--------8--8--||-------------------|-------------------|
|-7--7---8--8--||--7---7-7--7---7-7-|--7---7-7--7---7-7-|
|-8--8---8--8--||--8---8-8--8---8-8-|--8---8-8--8---8-8-|
|-8--8---6--6--||--8---8-8--8---8-8-|--8---8-8--8---8-8-|
|-6--6---------||--6---6-6--6---6-6-|--6---6-6--6---6-6-|
|
| Gtr II
| W                Q   Q    Q   q      Q   Q    Q   e E
|--------------||-10----------------|-10----------------|
|--------------||-----11-------11---|-----11-------11---|
|--------------||----------10-------|----------10-------|
|--------------||-------------------|-------------------|
|--------------||-------------------|-------------------|
|--------------||-------------------|-------------------|


  G                 G7           G7    G
   E E  e E  E E  E E   +E  E  E E +E   Q  E
|---------------------|------------------------||
|---------------------|------------------------||
|--4-4--4-4--4-4--4-4-|-(4)-4--4-4-(4)--4------||
|--5-5--5-5--5-5--5-3-|-(3)-5--5-3-(3)--5------||
|--5-5--5-5--5-5--5-5-|-(5)-5--5-5-(5)--5------||
|--3-3--3-3--3-3--3-3-|-(3)-3--3-3-(3)--3------||
|
|  Q    Q    Q    Q      Q     Q    e   Q  E
|-10------------------|-10---------------------||
|------12--------12---|-------12---------------||
|-----------10--------|------------10--10------||
|---------------------|------------------------||
|---------------------|------------------------||
|---------------------|------------------------||


   Outro
       Bb                            A   Bb                Eb6   Bb      A
    Q  e E +Q   e E   Q  e E +E  E E E   Q  e E +Q   e e   E e E E +Q.   E  3x
||------------------|------------------|-----------------|-8-8--------------||
||o-----------------|------------------|-----------------|-8-8-------------o||
||-----7-7-(7)--7-7-|-7--7-7-(7)-7-7-6-|-7--7-7-(7)--7-7-|-8-8---7-(7)---6--||
||-----8-8-(8)--8-8-|-8--8-8-(8)-8-8-7-|-8--8-8-(8)--8-8-|-8-8---8-(8)---7--||
||o----8-8-(8)--8-8-|-8--8-8-(8)-8-8-7-|-8--8-8-(8)--8-8-|-6-6---8-(8)---7-o||
||-----6-6-(6)--6-6-|-6--6-6-(6)-6-6-5-|-6--6-6-(6)--6-6-|-------6-(6)---5--||            
Submit corrections

↑ Back to top | Tablatures and chords for acoustic guitar and electric guitar, ukulele, drums are parodies/interpretations of the original songs. You may use it for private study, scholarship, research or language learning purposes only