Home » O » Otis Redding »

Otis Redding - Respect Tabs

Artists:  A B C D E F G H I J K L M N O P Q R S T U V W X Y Z # 

Respect Tabs

(ver. 1) Click to play this song!
Otis Redding
 Rating:
4.3/5 (9 votes)
                
 Intro
  Q=118
  D          G          D          G
 4/4
  Gtr I (Clean El. Gtr.)
  W          W          W          W
|-5--------|-7--------|-5--------|-7----|
|-7--------|-8--------|-7--------|-8----|
|-7--------|-7--------|-7--------|-7----|
|-7--------|-9--------|-7--------|-9----|
|----------|----------|----------|------|
|----------|----------|----------|------|


                               1st - 4th Verses
                            $
  D                             A             G
  q  q  q  q    q  q  q  q      q  q  q  q    q  q  q  q
|-5--5--5--5--|-5--5--5--5--||--5--5--5--5--|-3--3--3--3---|
|-7--7--7--7--|-7--7--7--7--||o-5--5--5--5--|-3--3--3--3---|
|-7--7--7--7--|-7--7--7--7--||--6--6--6--6--|-4--4--4--4---|
|-7--7--7--7--|-7--7--7--7--||--7--7--7--7--|-5--5--5--5---|
|-------------|-------------||o-------------|--------------|
|-------------|-------------||--------------|--------------|


  A             G             A             G
  q  q  q  q    q  q  q  q    q  q  q  q    q  q  q  q
|-5--5--5--5--|-3--3--3--3--|-5--5--5--5--|-3--3--3--3---||
|-5--5--5--5--|-3--3--3--3--|-5--5--5--5--|-3--3--3--3---||
|-6--6--6--6--|-4--4--4--4--|-6--6--6--6--|-4--4--4--4---||
|-7--7--7--7--|-5--5--5--5--|-7--7--7--7--|-5--5--5--5---||
|-------------|-------------|-------------|--------------||
|-------------|-------------|-------------|--------------||


 Chorus
                                  1.           2.
                   To Coda
  D          G          D          G            G
  W          W          W          W            W
|-5--------|-7--------|-5--------|-7---------||-7----||
|-7--------|-8--------|-7--------|-8--------o||-8----||
|-7--------|-7--------|-7--------|-7---------||-7----||
|-7--------|-9--------|-7--------|-9---------||-9----||
|----------|----------|----------|----------o||------||
|----------|----------|----------|-----------||------||


 Bridge
  C                   Bb             C                   Bb
   q   q   E  E  q    q  q  E E q     q   q   E  E  q    q  q  E E q
|--8---8---8--8--8--|-6--6--6-6-6--|--8---8---8--8--8--|-6--6--6-6-6---|
|--8---8---8--8--8--|-6--6--6-6-6--|--8---8---8--8--8--|-6--6--6-6-6---|
|--9---9---9--9--9--|-7--7--7-7-7--|--9---9---9--9--9--|-7--7--7-7-7---|
|-10--10--10-10-10--|-8--8--8-8-8--|-10--10--10-10-10--|-8--8--8-8-8---|
|-------------------|--------------|-------------------|---------------|
|-------------------|--------------|-------------------|---------------|


                                     Chorus
  C                   Bb              D          G
   q   q   E  E  q    q  q  E E q     W          W
|--8---8---8--8--8--|-6--6--6-6-6--||-5--------|-7----|
|--8---8---8--8--8--|-6--6--6-6-6--||-7--------|-8----|
|--9---9---9--9--9--|-7--7--7-7-7--||-7--------|-7----|
|-10--10--10-10-10--|-8--8--8-8-8--||-7--------|-9----|
|-------------------|--------------||----------|------|
|-------------------|--------------||----------|------|


                                     D.S. al Coda
  D          G          D
  W          W          q  q  q  q    q  q  q  q
|-5--------|-7--------|-5--5--5--5--|-5--5--5--5---||
|-7--------|-8--------|-7--7--7--7--|-7--7--7--7---||
|-7--------|-7--------|-7--7--7--7--|-7--7--7--7---||
|-7--------|-9--------|-7--7--7--7--|-7--7--7--7---||
|----------|----------|-------------|--------------||
|----------|----------|-------------|--------------||


              Outro
  &
  G            D          G
  W            W          W     7x
|-7--------||--5--------|-7-----||
|-8--------||o-7--------|-8----o||
|-7--------||--7--------|-7-----||
|-9--------||--7--------|-9-----||
|----------||o----------|------o||
|----------||-----------|-------||            
Submit corrections

↑ Back to top | Tablatures and chords for acoustic guitar and electric guitar, ukulele, drums are parodies/interpretations of the original songs. You may use it for private study, scholarship, research or language learning purposes only