Home » O » Otis Redding »

Otis Redding - My Girl Tabs

Artists:  A B C D E F G H I J K L M N O P Q R S T U V W X Y Z # 

My Girl Tabs

(ver. 1) Click to play this song!
Otis Redding
 Rating:
4/5 (5 votes)
                I have seen this tabbed in a few places, but never complete. I have pulled them 
all togther and added the missing bits.

Bass intro

G|--------------|\
D|--------------| \Play x2 times
A|-3------3-----| /
E|---3-3----3-3-|/


Guitar

e|--------------|\
B|-----------1--| \
G|-------0-2----|  \Play x2 times
D|---0-2--------|  /
A|-3------------| /
E|--------------|/

e|--------------|--------------|--------------|--------------|
B|-----------1--|--------------|-----------1--|--------------|
G|-------0-2----|--------------|-------0-2----|--------------|
D|---0-2--------|---------0-3--|---0-2--------|---------0-3--|
A|-3------------|-----0-3------|-3------------|-----0-3------|
E|--------------|-1-3----------|--------------|-1-3----------|

 I've got sunshine   on a cloudy day

e|--------------|--------------|--------------|--------------|
B|-----------1--|--------------|-----------1--|--------------|
G|-------0-2----|--------------|-------0-2----|--------------|
D|---0-2--------|---------0-3--|---0-2--------|---------0-3--|
A|-3------------|-----0-3------|-3------------|-----0-3------|
E|--------------|-1-3----------|--------------|-1-3----------|

 When it's cold outside,   I've got the month of May

CHORUS:
C Dm    F   G
I guess you say,

C        Dm      F         G
What can make me feel this way?

C
My girl.... My girl.... My girl....

              F         G7
Talkin' 'bout my girl

e|--------------|--------------|--------------|--------------|
B|-----------1--|--------------|-----------1--|--------------|
G|-------0-2----|--------------|-------0-2----|--------------|
D|---0-2--------|---------0-3--|---0-2--------|---------0-3--|
A|-3------------|-----0-3------|-3------------|-----0-3------|
E|--------------|-1-3----------|--------------|-1-3----------|

 I've got so much honey , the bees envy me

e|--------------|--------------|--------------|--------------|
B|-----------1--|--------------|-----------1--|--------------|
G|-------0-2----|--------------|-------0-2----|--------------|
D|---0-2--------|---------0-3--|---0-2--------|---------0-3--|
A|-3------------|-----0-3------|-3------------|-----0-3------|
E|--------------|-1-3----------|--------------|-1-3----------|

 I've got a sweeter song, than the birds and the trees

CHORUS:
C Dm    F   G
I guess you say,

C        Dm      F         G
What can make me feel this way?

C
My girl.... My girl.... My girl....

              F         G7
Talkin' 'bout my girl


Bass intro again

G|--------------|\
D|--------------| \Play x2 times
A|-3-----3------| /
E|---33----33---|/


When the violin starts, play this guitar:

e|--------------|\
B|-----------1--| \
G|-------0-2----|  \Repeat x2 times
D|---0-2--------|  /
A|-3------------| /
E|--------------|/

e|--------------|--------------|--------------|--------------|
B|-----------1--|--------------|-----------1--|--------------|
G|-------0-2----|--------------|-------0-2----|--------------|
D|---0-2--------|---------0-3--|---0-2--------|---------0-3--|
A|-3------------|-----0-3------|-3------------|-----0-3------|
E|--------------|-1-3----------|--------------|-1-3----------|

play with violin:
e|--------------|--------------|
B|--------------|--------------|
G|---------0-2-2|---------0-222|
D|-----0-2------|-----0-2------|
A|-2-2----------|-2-2----------|
E|--------------|--------------|

Then,

e|-----------1--|--------------|-----------1--|--------------|
B|-------1-3----|--------------|-------1-3----|--------------|
G|---0-2--------|---------0-3--|---0-2--------|---------0-3--|
D|-3------------|-----0-3------|-3------------|-----0-3------|
A|--------------|-1-3----------|--------------|-1-3----------|
E|--------------|--------------|--------------|--------------|

 I don't need no money, fortune or fame

e|-----------1--|--------------|-----------1--|--------------|
B|-------1-3----|--------------|-------1-3----|--------------|
G|---0-2--------|---------0-3--|---0-2--------|---------0-3--|
D|-3------------|-----0-3------|-3------------|-----0-3------|
A|--------------|-1-3----------|--------------|-1-3----------|
E|--------------|--------------|--------------|--------------|

 I've got all the riches- baby, one man can claim

CHORUS:
C Dm    F   G
I guess you say,

C        Dm      F         G
What can make me feel this way?

C
My girl.... My girl.... My girl....

              F         G7
Talkin' 'bout my girl

e|--------------|--------------|--------------|--------------|
B|-----------1--|--------------|-----------1--|--------------|
G|-------0-2----|--------------|-------0-2----|--------------|
D|---0-2--------|---------0-3--|---0-2--------|---------0-3--|
A|-3------------|-----0-3------|-3------------|-----0-3------|
E|--------------|-1-3----------|--------------|-1-3----------|

I've got sunshine on a cloudy day with my girl...

e|--------------|--------------|--------------|--------------|
B|-----------1--|--------------|-----------1--|--------------|
G|-------0-2----|--------------|-------0-2----|--------------|
D|---0-2--------|---------0-3--|---0-2--------|---------0-3--|
A|-3------------|-----0-3------|-3------------|-----0-3------|
E|--------------|-1-3----------|--------------|-1-3----------|

I've even got the month of May with my girl...
            
Submit corrections

↑ Back to top | Tablatures and chords for acoustic guitar and electric guitar, ukulele, drums are parodies/interpretations of the original songs. You may use it for private study, scholarship, research or language learning purposes only