Home » O » Otis Redding »

Otis Redding - Ive Got Dreams To Remember Tabs

Artists:  A B C D E F G H I J K L M N O P Q R S T U V W X Y Z # 

Ive Got Dreams To Remember Tabs

(ver. 1) Click to play this song!
Otis Redding
 Rating:
4/5 (4 votes)
                Gtr I (E A D G B E) - 'Steve Cropper - Electric Guitar'


 Intro                       1st, 2nd & 4th Verses
  Q.=52
                          $
       A                      A
 12/8
  Gtr I
  Q  E E E E a E Q  +Q.       E E E a E E E E E E a E E E
|----------------5--(5)---||------------------------------|
|------------0h2----------||o-----------------------------|
|----------2--------------||--------5h6-----------5h6-----|
|--------2----------------||------7-----7-------7-----7---|
|------0------------------||o---7---------7---7---------7-|
|-------------------------||--5-------------5-------------|


  D
  E E E E E E E E E E E E
|--------------------------|
|-------7-----------7------|
|-----7---7-------7---7----|
|---7-------7---7-------7--|
|-5-----------5------------|
|--------------------------|


  A                         D                         E
  E E E E E E E E E E E E   E E E E E E E E E E E E   E E E E E E E E E E E E
|-------------------------|-------------------------|-------------------------|
|-------------------------|-------7-----------7-----|-------------------------|
|-------6-----------6-----|-----7---7-------7---7---|-------1-----------1-----|
|-----7---7-------7---7---|---7-------7---7-------7-|-----2---2-------2---2---|
|---7-------7---7-------7-|-5-----------5-----------|---2-------2---2-------2-|
|-5-----------5-----------|-------------------------|-0-----------0-----------|


                                             To Coda
  A                         E
  E E E E E E E E E E E E   E E E E E E E E E E E E
|-------------------------|--------------------------|
|-------------------------|--------------------------|
|-------6-----------6-----|-------1-----------1------|
|-----7---7-------7---7---|-----2---2-------2---2----|
|---7-------7---7-------7-|---2-------2---2-------2--|
|-5-----------5-----------|-0-----------0------------|


 1.
  A           E
  E E E E E E E E E E E E
|---------------------------||
|--------------------------o||
|-------6-----------1-------||
|-----7---7-------2---2-----||
|---7-------7---2-------2--o||
|-5-----------0-------------||


                            3rd Verse
  2.
  A           E              A                         D
  E E E E E E E E E E E E    E E E E E E E E E E E E   E E E E E E E E E E E E
|-------------------------||-------------------------|-------------------------|
|-------------------------||-------------------------|-------7-----------7-----|
|-------6-----------1-----||-------6-----------6-----|-----7---7-------7---7---|
|-----7---7-------2---2---||-----7---7-------7---7---|---7-------7---7-------7-|
|---7-------7---2-------2-||---7-------7---7-------7-|-5-----------5-----------|
|-5-----------0-----------||-5-----------5-----------|-------------------------|


  A                         D                         E
  E E E E E E E E E E E E   E E E E E E E E E E E E   E E E E E E E E E E E E
|-------------------------|-------------------------|-------------------------|
|-------------------------|-------7-----------7-----|-------------------------|
|-------6-----------6-----|-----7---7-------7---7---|-------1-----------1-----|
|-----7---7-------7---7---|---7-------7---7-------7-|-----2---2-------2---2---|
|---7-------7---7-------7-|-5-----------5-----------|---2-------2---2-------2-|
|-5-----------5-----------|-------------------------|-0-----------0-----------|


  F#                        D
  E E E E E E E E E E E E   E E E E E E E E E E E E
|-------------------------|-------------------------|
|-------------------------|-------7-----------7-----|
|-------3-----------3-----|-----7---7-------7---7---|
|-----4---4-------4---4---|---7-------7---7-------7-|
|---4-------4---4-------4-|-5-----------5-----------|
|-2-----------2-----------|-------------------------|


              D.S. al Coda
  E
  e e e e e e e e e e e e
|---------------------------||
|-9-9-9-9-9-9-9-9-9-9-9-9---||
|-9-9-9-9-9-9-9-9-9-9-9-9---||
|-9-9-9-9-9-9-9-9-9-9-9-9---||
|-7-7-7-7-7-7-7-7-7-7-7-7---||
|---------------------------||


                             Outro
  &
  A           E               A
  E E E E E E E E E E E E     E E E E E E E E E E E E
|-------------------------||--------------------------|
|-------------------------||o-------------------------|
|-------6-----------1-----||--------6-----------6-----|
|-----7---7-------2---2---||------7---7-------7---7---|
|---7-------7---2-------2-||o---7-------7---7-------7-|
|-5-----------0-----------||--5-----------5-----------|


  D
  E E E E E E E E E E E E  3x
|--------------------------||
|-------7-----------7-----o||
|-----7---7-------7---7----||
|---7-------7---7-------7--||
|-5-----------5-----------o||
|--------------------------||            
Submit corrections

↑ Back to top | Tablatures and chords for acoustic guitar and electric guitar, ukulele, drums are parodies/interpretations of the original songs. You may use it for private study, scholarship, research or language learning purposes only