Home » O » Otis Redding »

Otis Redding - Happy Song Tabs

Artists:  A B C D E F G H I J K L M N O P Q R S T U V W X Y Z # 

Happy Song Tabs

(ver. 1) Click to play this song!
Otis Redding
 Rating:
4.3/5 (6 votes)
                
there are only two basic riffs in this song so it makes it pretty easy

e|---14----12----10----14----12----10----14----12----10---10\12--12\14|
b|--x-----x-----x-----x-----x-----x-----x-----x-----x------x\-x---x\-x|
g|14----12----10----14----12----10----14----12----10------10\12--12\14|
d|--------------------------------------------------------------------|
a|--------------------------------------------------------------------|
E|--------------------------------------------------------------------|

   (dum dum-dum dum-dum dum-dee-dum)
e|--------------------------------------------------------10\12--12\14|
b|---------------------------------------------------------x\-x---x\-x|
g|--------------------------------------------------------10\12--12\14|
d|-----------11-9p7------------11-9p7--------------11-9p7-------------|
a|0-7--9\11---------0-7--9\11---------0-7--9\11\12--------------------|
E|--------------------------------------------------------------------|

thats it have fun!
            
Submit corrections

↑ Back to top | Tablatures and chords for acoustic guitar and electric guitar, ukulele, drums are parodies/interpretations of the original songs. You may use it for private study, scholarship, research or language learning purposes only