Home » O » Osvajaci »

Osvajaci - Zla Noc Tabs

Artists:  A B C D E F G H I J K L M N O P Q R S T U V W X Y Z # 

Zla Noc Tabs

(ver. 1) Click to play this song!
Osvajaci
Uvod:
E|----------------------------------------------------|
H|---------------------------------------6-5----------|
G|-----5---4-5---5---4-5--4-5-----5---4-5-----7-5-4---|
D|-7-7---7-----7---7-----7----7-7---7---------------5-|
A|-7-7------------------------------------------------|
E|----------------------------------------------------|
  \----------------ovaj deo sest puta-----------------/
   \----samo sto se na kraju jos dodaje sledece:-----/
   
E|----------------------------------------------------|
H|-6-5------------------------------------------------|
G|-----7-5-4-----5-4-----9-7--------------------------|
D|-----------7-5-----7-5-----5-7----------------------|
A|----------------------------------------------------|
E|----------------------------------------------------|

Am               E
Krecem na put od ludila
 Dm             Am
I dobro znam te hladne plocnike
Ista nas noc sve privlaci
I stari plen i stare ratnike

F        G
Ne cekas to da prodje
C  G    Am    G
Da novo jutro dodje
F         G
Ti zoves, pitas
        E
Gde sam ja

C                 G
Zla(zla) noc(noc) kada zasvira
Am                      E
Gladne zveri ovog grada kad me ulove
Tvoj(tvoj) glas(glas) tad me nervira
Daj razumi kad ti kazem NE! NE! NEEEE!
NE ZOVI ME!

Uvod

Mesto i cas za paniku
Tezak je dah i teska muzika
Klinicki kraj vec nazirem
Maleno svetlo na dnu hodnika

A kada sve to prodje
Kad novo jutro dodje
Ti zoves, pitas
Gde sam ja

Zla(zla) noc(noc) kada zasvira
Gladne zveri ovog grada kad me ulove
Tvoj(tvoj) glas(glas) tad me nervira
Daj razumi kad ti kazem NE! NE! NEEEE!
NE ZOVI ME!

Brejk:
A|-------------------------------5-5-----7-7-5---5-----|
E|-5-7-7-5-7-7-7-5-7-5-7-7-0-5-7-----7-5-------7---7-7-|
  \-----------ovaj deo se svira cetiri puta-----------/
   \--------------pa onda sledeci prelaz-------------/
A|-2-0-2-3-4-5-|

A kada sve to prodje
Kad novo jutro dodje
Ti zoves, pitas
Gde sam ja

Zla(zla) noc(noc) kada zasvira
Gladne zveri ovog grada kad me ulove
Tvoj(tvoj) glas(glas) tad me nervira
Daj razumi kad ti kazem NE! NE!

Zla(zla) noc(noc) kada zasvira
Gladne zveri ovog grada kad me ulove
Tvoj(tvoj) glas(glas) tad me nervira
Daj razumi kad ti kazem NE! NE! NEEEE!
NE ZOVI MEEEEEEEEEE!
            
Submit corrections

↑ Back to top | Tablatures and chords for acoustic guitar and electric guitar, ukulele, drums are parodies/interpretations of the original songs. You may use it for private study, scholarship, research or language learning purposes only