» » »

Oscar Isaac - Fare Thee Well Dinks Song Tabs

Artists:  A B C D E F G H I J K L M N O P Q R S T U V W X Y Z # 

Fare Thee Well Dinks Song Tabs

(ver. 1) Click to play this song!
Oscar Isaac
 Rating:
4/5 (4 votes)

 Fare Thee Well Dinks Song lessons Tabs too difficult? Try these video lessons and learn fast
 
                Tuning: DADGAd

Intro
d|----0h4-4s7-------7-------7-------7s9-------9-------9-------9s7-------7-------7-------7---|
A|--------------0-------0-------0---------0-------0-------0---------0-------0-------0-------|
G|------------------------------------------------------------------------------------------|
D|------------------------------------------------------------------------------------------|
A|------------------------------------------------------------------------------------------|
D|----0---0---0---0---0---0---0---0-----0---0---0---0---0---0-----0---0---0---0---0---0-----|

d|---------4s2---------0-------0-------0-------0--------0---------------------|
A|-----0---------0h2-------2-------2-------2------------0---------------------|
G|-------------------------------------------------0h2--2---------------------|
D|------------------------------------------------------0---------------------|
A|------------------------------------------------------0---------------------|
D|---0---0-----0-----0---0---0---0---0---0---0---0------0---------------------|

Verse
       D                  G     D    
d|-----0------------------0-----0-----------------------------------------------|
A|-----0------------------2-----0-----------------------------------------------|
G|-----2------------------0-----2-----------------------------------------------|
D|-----0------------------0-----0-----------------------------------------------|
A|-----0------------------0-----0-----------------------------------------------|
D|-----0------------------2-----0-----------------------------------------------|
   If I had wings   like Noah's dove,
    D          Bm             G     C
d|--0----------4--------------0-----2--------------------------------------------|
A|--0----------5--------------2-----0--------------------------------------------|
G|--2----------4--------------0-----2--------------------------------------------|
D|--0----------0--------------0-----2--------------------------------------------|
A|--0----------0--------------0-----0--------------------------------------------|
D|--0----------0--------------2-----0--------------------------------------------|
   I'd fly the river   to the one I loved
    D              G  D        C           C D
d|--0--------------0--0--------2--------/4\2-0--------------------------------------|
A|--0--------------2--0--------0---------0-0-0--------------------------------------|
G|--2--------------0--2--------2--------/4\2-2--------------------------------------|
D|--0--------------0--0--------2--------/4\2-0--------------------------------------|
A|--0--------------0--0--------0---------0-0-0--------------------------------------|
D|--0--------------2--0--------0---------0-0-0--------------------------------------|
   Fare thee well, my honey,   Fare thee well*            
Submit corrections


        Fare Thee Well Dinks Song lessons Hard to play? Try these video lessons and learn fast Fare Thee Well Dinks Song lessons
        
↑ Back to top | Tablatures and chords for acoustic guitar and electric guitar, ukulele, drums are parodies/interpretations of the original songs. You may use it for private study, scholarship, research or language learning purposes only