» » »

Orange And Lemons - Huwag Kang Matakot Chords

Artists:  A B C D E F G H I J K L M N O P Q R S T U V W X Y Z # 

Huwag Kang Matakot Chords

(ver. 1) Click to play this song!
Orange And Lemons
 Rating:
4.2/5 (5 votes)
                Orange And Lemons
Huwag kang matakot  
UltraelectroMagnetic Jam
any comment e-mail me..=) 

Intro:
e|------------------------------------|
B|-11----8-8----10----8-8-----11-11---|
G|--8----8-8-----8----8-8------8--8---|
D|------------------------------------|
A|------------------------------------|
E|------------------------------------|

II  G Bm A D
e|--------7-------|---------7--------|------5--------|--2----2h3-2----|
B|-----8-----8----|-------7-----7----|----------5--0-|-----3-------3--|
G|-7------------7-|---7------------7-|-5-5-----------|-2--------------|
D|----------------|-9----------------|-7-7-----------|----------------|
A|----------------|------------------|---------------|----------------|
E|----------------|------------------|---------------|----------------|

G Bm A D
Huwag kang matakot 'di mo ba alam nandito

G Bm A D
lang ako Sa iyong tabi 'di kita pababa- yaan kailan-



Refrain 1
man.. at kung ikaw ay mahulog sa bangin. . .

C Cm G G7
ay sasaluhin ki-

Chorus 1:
    G                     Bm
Huwag kang matakot na matulog mag-isa
    Am
Kasama mo naman. . .

D (ely) (marcus)

     G                  Bm
Huwag kang matakot na umibig at lumuha
    Am
Kasama mo naman. . .

G Bm Am
'wag kang matakot ah ah ah ah. . . (intro lead)


II  (do chords/tabs of I)
huwag kang matakot
dahil ang buhay mo'y walang
katapusan. . . makapangyarihan ang pag-ibig
na hawak mo sa iyong kamay



Refrain 2 (do chords/ tabs of refrain 2)
ikaw ang Diyos at hari ng iyong mundo
matakot sila sa'yo



Huwag kang matakot na matulog mag-isa
Kasama mo naman ako
Huwag kang matakot na umibig at lumuha
Kasama mo naman ako
Huwag kang matakot na magmukhang tanga
Kasama mo naman ako
Huwag kang matakot sa hindi mo pa makita
Kasama mo naman ako
Huwag kang matakot. . . ah ah ah ah




Coda
A                            C#m
Huwag kang matakot (huwag kang matakot)
       Bm
'di kita pababa-
E
yaan kailan . . .
A
man . . .

(coda, 4x to fade) 
            
Submit corrections

↑ Back to top | Tablatures and chords for acoustic guitar and electric guitar, ukulele, drums are parodies/interpretations of the original songs. You may use it for private study, scholarship, research or language learning purposes only