Home » O » One Piece »

One Piece - Overtaken Tabs

Artists:  A B C D E F G H I J K L M N O P Q R S T U V W X Y Z # 

Overtaken Tabs

(ver. 1) Click to play this song!
One Piece
Tuning:Standard

e|------------------------------------------------|
B|------------------------------------------------|
G|------------------------------------------------|
D|------------------------------------------------| x2
A|--------------------3--------7--5---------------|
E|---5--5--3---3--0-----5---5---------3---5-------|

e|---------------------------------------------------------------------------------|
B|---------------------------------------------------------------------------------|
G|---------------------------------------------------------------------------------|
D|-------------------------------5-------------------------------------------------|  x2
A|--------------------3-------7-----7--5---3--5--7------7-7--5-----5-5---3-2-0--0--|
E|---5--5--3---3--0-----5--5------------------------5-5--------3-3-------------3---|

e|--------------------------5--5--3---3--0---8--5-|
B|------------------------------------------------|
G|------------------------------------------------|
D|------------------------------------------------|
A|-------------------3----------------------------|
E|---5--5--3---3--0-----5---5--5--3---3--0---8--5-|
            
Submit corrections

↑ Back to top | Tablatures and chords for acoustic guitar and electric guitar, ukulele, drums are parodies/interpretations of the original songs. You may use it for private study, scholarship, research or language learning purposes only