Home » O » Olly Murs »

Olly Murs - Dance With Me Tonight Bass

Artists:  A B C D E F G H I J K L M N O P Q R S T U V W X Y Z # 

Dance With Me Tonight Bass

(ver. 1) Click to play this song!
Olly Murs
Dance With Me Tonight
Olly Murs 4th UK number one single.  Taken from the
album In Case You Didnt Know.  Tab by bass50611.
A very straight forward and catchy tune.

Intro:                      Im Gonna Call On My Friend.....
G|-------------------|-------------------------------------|
D|-NO BASS ON FIRST--|-------------------------------------|
A|-PART SPOKEN INTRO-|-5-5---5-5---5-5---5-5---5-5---5-5---|
E|-------------------|------------5-----------5----------5-|

Verse 1:                                   (PLAY THIS x2)
G|---------------------------------------------|
D|---------------------------------------------|
A|-5-5---5-5-4-2-2---2-2-0-----------5-5---5-5-|
E|------5-----------2------3-3---5-5------5----|

Chorus:
G|------4----------------------------------------------------4-------4-|
D|---4-7----4-7-4------4--------4------------------------4-7-----4-7---|
A|-5-------5---------5---5----5---5----2-5-2---4-7-4---5--------5------|
E|-----------------7--------7---------3-------5------------------------|

Repeat Chorus:

Verse 2
G|-----------------------------------------------------------4-7-4-----|
D|-------------------------------------------------------4-7-------7-4-|
A|-5----4-2----0----------5---5----5----4-2----0--------5--------------|
E|--------------3----5-------5------------------3----5-----------------|

Bridge:
G|---------------------------------------------------------------------|
D|--------------------4------4-----------------------------------------|
A|--2-5-2---2-5-2----5--5---5--5---2-5-2---2-5-2---0---0---0-0-0-2-3-4-|
E|-3-------3-------7------7-------3-------3----------------------------|

Repeat Chorus: (x2)

For Verse 3 no Bass on first part, Second Part Repeat Verse 1 (x 1)

Repeat Chorus: (x3)

Outro:
G|------4----------------------------------------------4--------|
D|---4-7----4-7-4----4-------4----------------------4-7---------|
A|-5-------5-------5--5----5--5---2-5-2---4-7-4---5---------5-5-|
E|---------------7-------7-------3-------5----------------------|
            
Submit corrections

↑ Back to top | Tablatures and chords for acoustic guitar and electric guitar, ukulele, drums are parodies/interpretations of the original songs. You may use it for private study, scholarship, research or language learning purposes only