» » »

Oldfield Mike - Moonlight Shadow Bass

Artists:  A B C D E F G H I J K L M N O P Q R S T U V W X Y Z # 

Moonlight Shadow Bass

(ver. 1) Click to play this song!
Oldfield Mike
 Rating:
4/5 (4 votes)

 Moonlight Shadow lessons Tabs too difficult? Try these video lessons and learn fast
 
                

First only guitar

riff 1
The last.....
G|-----------------------------
D|-----------------------------
A|-4-44-4-0-00-0-2-22-2----2-2-
E|----------------------0-0---- x2

riff2
Lost in a river......
G|-------------------------
D|-------------------------
A|--------2-22-2-4-40-02-2-
E|-0-00-0------------------ x2

riff 1 x2
riff 2 x2

riff 3
I stay...
G|------------------------
D|------------------------
A|-222---222------0-0-2-2-
E|------------0-0--------- x2

riff 1 x2
riff 2 x2
riff 3 x2
(solo)
riff 1 x2
riff 2 x2
riff 1 x2
riff 2 x2
riff 1 x2
....end

This is my first tab, escuse me for every error. 
For any correction please e-mail me.
Enjoy the music :)
            
Submit corrections


        Moonlight Shadow lessons Hard to play? Try these video lessons and learn fast Moonlight Shadow lessons
        
↑ Back to top | Tablatures and chords for acoustic guitar and electric guitar, ukulele, drums are parodies/interpretations of the original songs. You may use it for private study, scholarship, research or language learning purposes only